System Of A Down - Chop Suey Chords & Tabs

 

Chop Suey Chords & Tabs

System Of A Down Chords & Tabs

Version: 7 Type: Tab 0 ratings
1 star 2 stars 3 stars 4 stars 5 stars
comments

Chop Suey Tab

   
System of a down, Chop Suey.
 Tabbed by Ethan, clarkee34@hotmail.com.
  
#----------------------------------PLEASE NOTE--------------------------------#
#This file is the author's own work and represents their interpretation of the#
#song. You may only use this file for private study, scholarship, or research.#
#-----------------------------------------------------------------------------#
#-- File created with Instab - http://www.pconline.com/~smcarey/instab.html --#
#-----------------------------------------------------------------------------#

Author/Artist: System of a down
Title: Chop suey
Transcribed by: Ethan
Email: clarkee34@hotmail.com

Tune down 1 step, drop D (C,G,C,F,A,D)
[ Tab from: http://www.guitartabs.cc/tabs/s/system_of_a_down/chop_suey_tab_ver_7.html ]
clean
------------------------------------------------------------------------------
------------------------------------------------------------------------------
-5-/7--4--2-------------------------------------------------------------------
-7--9--5--3-------------------------------------------------------------------
-0--0--0--0-------------------------------------------------------------------
------------------------------------------------------------------------------
                                                                              
slight distortion (overdub 1 on intro) also used later
------------------------------------------------------------------------------
------------------------------------------------------------------------------
-5---5---5----7---7---7----4---4---4---2---2---2------------------------------
---7---7---7----9---9---9----5---5---5---3---3---3----------------------------
------------------------------------------------------------------------------
------------------------------------------------------------------------------
                                                                              
Clean (overdub 2 on intro) also used later
------------------------------------------------------------------------------
-13-15-12--17---18--15--18----------------------------------------------------
--x--x--x---x----x---x---x----------------------------------------------------
-10-12--9--14---15--12--15----------------------------------------------------
------------------------------------------------------------------------------
------------------------------------------------------------------------------
                                                                              
heavy distortion
------------------------------------------------------------------------------
------------------------------------------------------------------------------
------------------------------------------------------------------------------
------------------------------------------------------------------------------
-8-7-8-7-8-7-8-7-7-6-7-6-7-6-7-6-10-9-10-9-10-9-10-9--12-11-12-11-12-11-12-11-
-8-7-8-7-8-7-8-7-7-6-7-6-7-6-7-6-10-9-10-9-10-9-10-9--12-11-12-11-12-11-12-11-
                                                                              

------------------------------------------------------------------------------
------------------------------------------------------------------------------
------------------------------------------------------------------------------
------------------------------------------------------------------------------
------------------------------------------------------------------------------
-777777-666666-999999-121212121212--------------------------------------------
                                                                              

------------------------------------------------------------------------------
------------------------------------------------------------------------------
------------------------------------------------------------------------------
------------------------------------------------------------------------------
--8-7---8-7-8-7-8-7-8-7--8-7--------------------------------------------------
--8-7---8-7-8-7-8-7-8-7--8-7--------------------------------------------------
                                                                              
light distortion (all palm muted)
------------------------------------------------------------------------------
------------------------------------------------------------------------------
--5----5----------7---7----------4---4---------2---2--------------------------
----7----7---7------9---9---9------5---5---5-----3---3---3--------------------
-----------0--------------0--------------0-------------0----------------------
------------------------------------------------------------------------------
                                                                              
distortion
------------------------------------------------------------------------------
------------------------------------------------------------------------------
--2----------5----------------------------------------------------------------
--2-----3----5----3-----------------------------------------------------------
--0-----3----3----3-----------------------------------------------------------
--------3---------3-----------------------------------------------------------
                                                                              

 
:: Ultimate Guitar Archive :: 
http://www.ultimate-guitar.com 



Comments