System Of A Down - Chop Suey Chords & Tabs

 

Chop Suey Chords & Tabs

System Of A Down Chords & Tabs

Version: 14 Type: Tab 0 ratings
1 star 2 stars 3 stars 4 stars 5 stars
comments

Chop Suey Tab

Artist:System Of A Down
Album:Toxicity
Title:Chop Suey!

Tunning is Drop-C and if you don't know by now here goes
 tune from standard: tune all 6 of your stings down a whole step 
 then tune your 6th string (the biggest one) down a whole step again
if you are to lazing just go drop-d but don't expect it to sound right
 and a whole step=2 frets 

Ok my friend tought me this and it sounds perfect

Table
*=repeet
\=slide
/\ =arrow
Intro
Guitar 1
|----------------------------------------------------------------
|----------------------------------------------------------------
|-5-********---\7-********--\4-********--\2-********-------------
|-7-********---\9-********--\5-********--\3-********-------------
|-0-********----0-********---0-********---0-********-------------
|----------------------------------------------------------------
    Do-this-three-times-/\-and-add-this-the-seccond-time-\/
Iknow System only has one guitarist, but they dubbed it
Guitar 2
|----------------------------------------------------------------
|----------------------------------------------------------------
|--5--5--5-------7--7--7-------4--4--4------2--2--2--------------
|---7--7--7-------9--9--9-------5--5--5------3--3--3-------------
|----------------------------------------------------------------
|----------------------------------------------------------------

Pre Verse
Guitar 1
|---------|---------|-----------|-------------|------------------
|---------|---------|-----------|-------------|------------------
|-Twice---|-Twice---|--Twice----|---Twice-----|------------------
|---------|---------|-----------|-------------|------------------
|-8-7-8-7-|-7-6-7-6-|-10-9-10-9-|-12-10-12-10-|-Do-whole-thing---
|-8-7-8-7-|-7-6-7-6-|-10-9-10-9-|-12-10-12-10-|-Twice------------

Guitar 1
|----------------------------------------------------------------
|----------------------------------------------------------------
|----------------------------------------------------------------
|----------------------------------------------------------------
|-------------------------------------------Do-Whole-thing-Twice-
|-7-*******-6-*******-9-*******-12-*******-----------------------

Verse
Guitar 1
|------|---------|-----|---------|-------------------------------
|------|-Twice---|-----|-Twice---|-------------------------------
|------|---------|-----|---------|----Repeet as needed-----------
|------|---------|-----|---------|-------------------------------
|--8-7-|-8-7-8-7-|-7-6-|-7-6-7-6-|-------------------------------
|--8-7-|-8-7-8-7-|-7-6-|-7-6-7-6-|-------------------------------

Chorus is basicaly the intro
[ Tab from: http://www.guitartabs.cc/tabs/s/system_of_a_down/chop_suey_tab_ver_14.html ]
Guitar 1
|----------------------------------------------------------------
|----------------------------------------------------------------
|-5-********---\7-********--\4-********--\2-********-------------
|-7-********---\9-********--\5-********--\3-********-------------
|-0-********----0-********---0-********---0-********-------------
|----------------------------------------------------------------
 do twice /\   \/
Guitar 2
|----------------------------------------------------------------
|----------------------------------------------------------------
|--5--5--5-------7--7--7-------4--4--4------2--2--2--------------
|---7--7--7-------9--9--9-------5--5--5------3--3--3-------------
|----------------------------------------------------------------
|---------------------------------------------------------------

Guitar 1
|----------------------------------------------------------------
|----------------------------------------------------------------
|----------------------------------------------------------------
|----------------------------------------------------------------
|-------------------------------------------Do-Whole-thing-Twice-
|-7-*******-6-*******-9-*******-12-*******-----------------------

Guitar 1
|---------|------|---------|-----|---------|---------------------
|--Four---|------|-Twice---|-----|-Twice---|---------------------
|--Times--|------|---------|-----|---------|-Repeet as Needed----
|---------|------|---------|-----|---------|---------------------
|-8-7-8-7-|--8-7-|-8-7-8-7-|-7-6-|-7-6-7-6-|---------------------
|-8-7-8-7-|--8-7-|-8-7-8-7-|-7-6-|-7-6-7-6-|---------------------



Chorus 

Guitar 1
|----------------------------------------------------------------
|----------------------------------------------------------------
|-5-********---\7-********--\4-********--\2-********-------------
|-7-********---\9-********--\5-********--\3-********-------------
|-0-********----0-********---0-********---0-********-------------
|----------------------------------------------------------------
 do four times /\   \/  on last stop on this/\
Guitar 2
|----------------------------------------------------------------
|----------------------------------------------------------------
|--5--5--5-------7--7--7-------4--4--4------2--2--2--------------
|---7--7--7-------9--9--9-------5--5--5------3--3--3-------------
|----------------------------------------------------------------
|---------------------------------------------------------------

Guitar 1
|----------|----------|-----------|-------------|----------------
|--Twice---|--Twice---|--Twice----|--Twice------|----------------
|----------|----------|-----------|-------------|---two times-
|--8-7-8-7-|--7-6-7-6-|-10-9-10-9-|-12-10-12-10-|-----------------
|--8-7-8-7-|--7-6-7-6-|-10-9-10-9-|-12-10-12-10-|-----------------
|--8-7-8-7-|--7-6-7-6-|-10-9-10-9-|-12-10-12-10-|-----------------

Guitar 1
|---------|---------|-----------|-------------|------------------
|---------|---------|-----------|-------------|------------------
|-Twice---|-Twice---|--Twice----|---Twice-----|------------------
|---------|---------|-----------|-------------|------------------
|-8-7-8-7-|-7-6-7-6-|-10-9-10-9-|-12-10-12-10-|-Do-whole-thing---
|-8-7-8-7-|-7-6-7-6-|-10-9-10-9-|-12-10-12-10-|-Twice------------

Guitar 1
|----------------------------------------------------------------
|----------------------------------------------------------------
|----------------------------------------------------------------
|----------------------------------------------------------------
|-------------------------------------------Do-Whole-thing-Twice-
|-7-*******-6-*******-9-*******-12-*******-----------------------

Now the part no one seems to get right
Forsakin Part
Guitar 1 
|----------------------------------------------------------------
|------------------------------------------Play--for rest of song
|-------------10----10---------------10----10--------------------
|---7----7----10----10----10---10----10----10--------------------
|---7----7----8-----8-----10---10----8-----8---------------------
|---7----7----------------10---10--------------------------------

well thats it i'm not including the words cause its already long enough
Comments