System Of A Down - Chop Suey Chords & Tabs

 

Chop Suey Chords & Tabs

System Of A Down Chords & Tabs

Version: 1 Type: Tab 1 rating
1 star 2 stars 3 stars 4 stars 5 stars
comments

Chop Suey Tab

System of a Down
Song Name: Chop Suey
Tuning: Drop C
-------------------------------------------------------------------------



Intro (acoustic guitar)
---------------------------------------
---------------------------------------
--/5-5555---77777--44444---22222-------
--/7-7777---99999--55555---44444-------
-----0000---00000--00000---00000-------
---------------------------------------

Guitar 2 (comes in second time)
--------------------------------------------------------------------------------------------------
--------------------------------------------------------------------------------------------------
---5---5---5-----7---7---7----4---4---4----2---2---2----------------------------------------------
-----7---7---7-----9---9---9----5---5---5----4---4---4--------------------------------------------
--------------------------------------------------------------------------------------------------
--------------------------------------------------------------------------------------------------
  |======================PM============================|


Guitar 3 (comes in third time) - all tremlo picking
--------------------------------------------------------------------------------------------------
--------------------------------------------------------------------------------------------------
--15----17----14----19----19----17----20----19----------------------------------------------------
--------------------------------------------------------------------------------------------------
--------------------------------------------------------------------------------------------------
--------------------------------------------------------------------------------------------------


[ Tab from: http://www.guitartabs.cc/tabs/s/system_of_a_down/chop_suey_tab.html ]
Heavy
--------------------------------------------------------------------------------------------------
--------------------------------------------------------------------------------------------------
--------------------------------------------------------------------------------------------------
----7777---6666----99999----12-12-12-12----------------------------------------------------------- 2x
----7777---6666----99999----12-12-12-12-----------------------------------------------------------
----7777---6666----99999----12-12-12-12-----------------------------------------------------------

--------------------------------------------------------------------------------------------------
--------------------------------------------------------------------------------------------------
--------------------------------------------------------------------------------------------------
--------------------------------------------------------------------------------------------------
--------------------------------------------------------------------------------------------------
---7777777---666666--999999--121212121212---------------------------------------------------------


Verse
--------------------------------------------------------------------------------------------------
--------------------------------------------------------------------------------------------------
--------------------------------------------------------------------------------------------------
--777777-76------666666-67------------------------------------------------------------------------
--777777-76------666666-67------------------------------------------------------------------------
--777777-76------666666-67------------------------------------------------------------------------
  |-PM-|         |-PM-|

Chorus (with other guitar doing the tremlo picking from intro)
-------------------------------------------------------------------------------
-------------------------------------------------------------------------------
---5-------5--------7--------7--------4-------4-------2-------2----------------
-----7---7---7---5----9----9---9----9---5---5---5---5---4---4---4---4----------
-------7-------7--------10-------10-------7-------7-------5-------5------------
-------------------------------------------------------------------------------
   |----------------------------PM--------------------------------------|



Comments