System Of A Down - Chop Suey Chords & Tabs

 

Chop Suey Chords & Tabs

System Of A Down Chords & Tabs

Version: 9 Type: Bass Tab 0 ratings
1 star 2 stars 3 stars 4 stars 5 stars
comments

Chop Suey Bass Tab

   
==============================================
ah itong song na 2 pinamagatang chopsuey, sa
tingin ko mga 97% na tong tama cge tugtugin nyo
na 2, galing ako sa bandang HOLOCAUST... cge paki
tugtug na lng... keep up... chill out...
==============================================
Chopsuey
Intro
F|----------------------------------------------|
C|-3-2-0-003-5-3-2-222-2-3-5-7-8-5-3-0--2-0-00--|
G|----------------------------------------------|
C|----------------------------------------------|

F|------------------------------------------------------|
C|-12-10-7-777-14-12-7-777-12-14-15-17-15-14-12-10-12---|
G|------------------------------------------------------|
C|------------------------------------------------------|

Verse 1
F|--------------------------------------|
C|--------------------------------------|
G|--------------------------------------|
C|-8-8-8-8-8-8-8-8-8-8-8-8-8-8-8-8-8-0--|

F|-----------------------------------------------| Verse 1 x 4
C|-----------------------------------------------| The 2nd bit
G|---------10b---------8b---------7b---------5b--|
C|-0-0-0-0-----0-0-0-0----0-0-0-0----0-0-0-0-----|

Chorus 1
F|-----------------------------------------------|
C|-3-2-0-000-5-3-2-222-2-3-5-7-8-5-3-2-0-000-----|
G|-----------------------------------------------|            x2
C|-----------------------------------------------|
[ Tab from: http://www.guitartabs.cc/tabs/s/system_of_a_down/chop_suey_btab_ver_9.html ]
Verse 2
F|--------------------------------------|
C|--------------------------------------|
G|--------------------------------------|
C|-8-8-8-8-8-8-8-8-8-8-8-8-8-8-8-8-8-0--|
                                                  x3
F|-----------------------------------------------|
C|-----------------------------------------------|
G|---------10b---------8b---------7b---------3b--|
C|-0-0-0-0-----0-0-0-0----0-0-0-0----0-0-0-0-----|

Verse 2 Fill:
F|------------------------------------------------------------------------|
C|------------------------------------------------------------------------|
G|------------------------------------------------------------------------|
C|-8-8-8-8-8-8-8-8-8-8-8-8-8-8-8-8-8-8---7-7-7-7-7-7-7-7-7-7-7-7-7-7-7-7--|

Breakdown
F|----------------------------------------------------|
C|----------------------------------------------------|
G|----------------------------------------------------|             x3
C|-3-2-0-5-3-2-2-3-5-7-8-5-3-2-0--8-------------------|

Outro
F|---------------------------------------------|
C|-3-2-0-000-5-3-2-222-2-3-5-7-8-5-3-2-0-000---|
G|---------------------------------------------|          x2
C|---------------------------------------------|

F|---------------------------------------------------------|
C|-12-10-7-777-14-12-7-777-12-14-15-17-15-14-12-10-12------|
G|---------------------------------------------------------|         x2
C|---------------------------------------------------------|

b-Bend
Comments