System Of A Down - Chop Suey Chords & Tabs

 

Chop Suey Chords & Tabs

System Of A Down Chords & Tabs

Version: 7 Type: Bass Tab 0 ratings
1 star 2 stars 3 stars 4 stars 5 stars
comments

Chop Suey Bass Tab

   
Artist: System Of A dOwn
Song: Chop Suey!
Instrument: Bass
Author>: Andreas Karlsson , Sweden

Intro
F||----||----------------
C||----||----------------
G||----||---------------- x2
C||-7--||---7--12--9--6--

F||---------------------------------
C||---------------------------------
G||--------------------------------- x2
C||777777-666666-999999-121212121212 

Verse-Wake up, grab a.....
F||---------------------
C||---------------------
G||--------------------- x4
C||-77-777777-66-666666-

Chorus- I don't think you trust...
F||------------------
C||------------------
G||------------------ x2
C||--7--12--9--6-1/3-

F||---------------------------------
C||---------------------------------
G||--------------------------------- x2
C||777777-666666-999999-121212121212 

Verse-Wake up.......
F||---------------------
C||---------------------
G||--------------------- x4
C||-77-777777-66-666666-
[ Tab from: http://www.guitartabs.cc/tabs/s/system_of_a_down/chop_suey_btab_ver_7.html ]
Chorus-I dont think you trust...
F||------------------
C||------------------
G||------------------ x2
C||--7--12--9--6-1/3-

Dy in my self righteous suicide
F||------------------------------------
C||------------------------------------
G||------------------------------------ x2
C||77-7-77-1212-12-1212-99-9-99-66-6-1/3

Father , Father
F||---------------------------------
C||---------------------------------
G||--------------------------------- x6
C||777777-666666-999999-121212121212

F||------------------
C||------------------
G||------------------ x2
C||--7--12--9--6-1/3- 

F||------------------------------------
C||------------------------------------
G||------------------------------------ x2
C||77-7-77-1212-12-1212-99-9-99-66-6-1/3


Enjoy, I think it's right to 90% it's kinda hard to listen out! Mail me
if you think its all wrong on : Linkinparker_15@hotmail.com   or youst write a comment!

System Of A Down Rulez!!
Comments