System Of A Down - Chic N Stu Chords & Tabs

 

Chic N Stu Chords & Tabs

System Of A Down Chords & Tabs

Version: 4 Type: Tab 0 ratings
1 star 2 stars 3 stars 4 stars 5 stars
comments

Chic N Stu Tab

   
Artist: System of a Down
Song: Chic N Stu
Album: Steal This Album (2002)

Drop C


Intro:
|-9*-9*-9*-9*-9*-9*-9*-9*--|
|-8*-8*-8*-8*-8*-8*-8*-8*--|
|--------------------------|
|--------------------------| (Repeat 4x)
|--------------------------|
|--------------------------|

Want a piece of pie
Pizza Pizza pie 
Every minute every second 
Buy Buy Buy Buy Buy (Repeat 2x)

Riff 1:
|-----------------------------------------|
|-----------------------------------------|
|-----------------------------------------|
|11-0-11-0-11-0-11-0-11-0-11-0-11-0-11-0--| (Repeat 4x)
|11-0-11-0-11-0-11-0-11-0-11-0-11-0-11-0--|
|11-0-11-0-11-0-11-0-11-0-11-0-11-0-11-0--|

Pepperoni 
And green peppers 
Mushrooms, olives, chives

Riff 2:
|---------------------------------|
|---------------------------------|
|-6-7-9-7-6-7-9-7-6-7-9-7-6*------|
|---------------------------11*---|
|---------------------------11*---|
|---------------------------11*---|
(Palm Mute)

Pepperoni 
And green peppers 
Mushrooms, olives, chives

Riff3:
|------------------------------|
|------------------------------|
|------------------------------|
|------------------------------|
|-4-5-7-5-4-5-7-5-4-5-7-5-4*---|
|------------------------------|
(Palm Mute)

Need therapy, therapy, 
Advertising causes me therapy, therapy
Advertising causes me


[ Tab from: http://www.guitartabs.cc/tabs/s/system_of_a_down/chic_n_stu_tab_ver_4.html ]
Riff 4:
|----------------------------------------------|
|----------------------------------------------|
|----------------------------------------------|
|11--11-11-11--11-11-11--11-11-11-11-11-11-11--| (Repeat 2x)
|11--11-11-11--11-11-11--11-11-11-11-11-11-11--|
|11--11-11-11--11-11-11--11-11-11-11-11-11-11--|

therapy, therapy
advertising causes
therapy, therapy
advertising causes

Riff 5:
|----------------------------------------------|
|----------------------------------------------|
|----------------------------------------------|
|11--11-12-11--11-12-11--11-12-11-12-11-12-11--| (Repeat 2x)
|11--11-12-11--11-12-11--11-12-11-12-11-12-11--|
|11--11-12-11--11-12-11--11-12-11-12-11-12-11--|--------|
                  					|
							|
							|
Riff 6:		                            |-----------|
|-9*-9*-9*-9*-9*-9*-9*-9*-9-9-9-9-9-9-9-9---|
|-8*-8*-8*-8*-8*-8*-8*-8*--8-8-8-8-8-8-8-8--|
|-------------------------------------------|
|-------------------------------------------|
|-------------------------------------------|
|-------------------------------------------|

(Repeat Riffs 1 through 4)
(Repeat Riff 5, 2x)

Advertisings got you on the run

Riff 7:
|-----10~------|
|---8----------|
|-8------------|
|--------------|
|--------------|
|--------------|

Need therapy, therapy
Advertising causes

Riff 8:
|----------------------------------------|
|----------------------------------------|
|----------------------------------------|
|11-11-12-11-11-12-11-11-12-11-12-11-12--| (Repeat Riffs 7 and 8, 2x)
|11-11-12-11-11-12-11-11-12-11-12-11-12--|
|11-11-12-11-11-12-11-11-12-11-12-11-12--|
(Repeat Riff 7, 2x)

Advertisings got you on the run

Riff 9:
|-----8~-------|
|---6----------|
|-6------------|
|--------------|
|--------------|
|--------------|

(Repeat Riff 7 and 9, 2x)
(And finally repeat riffs 1 through 5)

Whew, My first tab done! Tell me what you think
***This song kicks ass!***
Comments