System Of A Down - Chic N Stu Chords & Tabs

 

Chic N Stu Chords & Tabs

System Of A Down Chords & Tabs

Version: 1 Type: Tab 0 ratings
1 star 2 stars 3 stars 4 stars 5 stars
comments

Chic N Stu Tab

   
-=Chic'n'Stu=-System of a down
==============
tabs by Javir Rodríguez
(C-G-C-F-A-D)


A
1:-9--9--9--9-|
2:-8--8--8--8-|
3:------------|
4:------------|
5:------------|
6:------------|


B
       pm.........
1:-----------------|
2:-----------------|
3:-6-7-6-7-6-7-6-7-|
4:-6-7-6-7-6-7-6-7-|
5:-4-5-4-5-4-5-4-5-|
6:-----------------|


C

      pm.........................
1:--------------------------------|
2:--------------------------------|
3:-6--6-7-9-7--6-7-9-7--6-7-9-7-6-|
4:-6------------------------------|
5:-4------------------------------|
6:--------------------------------|


D(staccato played)
1:------------------------------|
2:------------------------------|
3:-6--6-7-6--6-7-6--6-7-6-7-6-7-|
4:-6--6-7-6--6-7-6--6-7-6-7-6-7-|
5:-4--4-5-4--4-5-4--4-5-4-5-4-5-|
6:------------------------------|


E(normal played)
1:------------------------------|
2:------------------------------|
3:-6--6-7-6--6-7-6--6-7-6-7-6-7-|
4:-6--6-7-6--6-7-6--6-7-6-7-6-7-|
5:-4--4-5-4--4-5-4--4-5-4-5-4-5-|
6:------------------------------|


F
1:-9---9---9---9---|
2:---8---8---8---8-|
3:-----------------|
4:-----------------|
5:-----------------|
6:-----------------|

[ Tab from: http://www.guitartabs.cc/tabs/s/system_of_a_down/chic_n_stu_tab.html ]
G
          (staccato)                             (staccato)
1:-------|------------------------------|-------|------------------------------|
2:-------|------------------------------|-------|------------------------------|
3:-----7-|-6--6-7-6--6-7-6--6-7-6-7-6-7-|-----7-|-6--6-7-6--6-7-6--6-7-6-7-6-7-|
4:---5---|-6--6-7-6--6-7-6--6-7-6-7-6-7-|---5---|-6--6-7-6--6-7-6--6-7-6-7-6-7-|
5:-6-----|-4--4-5-4--4-5-4--4-5-4-5-4-5-|-6-----|-4--4-5-4--4-5-4--4-5-4-5-4-5-|
6:-------|------------------------------|-------|------------------------------|

1:-------|-------|-------|-------|-------|-------|---------------------------------|
2:-------|-------|-------|-------|-------|-------|---------------------------------|
3:-----7-|-----7-|-----5-|-----7-|-----5-|-----7-|-7-8-7-8-7-8-7-8-7-8-7-8-7-8-7-8-|
4:---5---|---5---|---3---|---5---|---3---|---5---|---------------------------------|
5:-6-----|-6-----|-4-----|-6-----|-4-----|-6-----|---------------------------------|
6:-------|-------|-------|-------|-------|-------|---------------------------------|


H
1:---|
2:---|
3:-6-|
4:-6-|
5:-4-|
6:---|


ORDER:
=====

A 8x
B 8x
C 2x
D 2x
E 2x
A 2x
F 2x
B 8x
C 2x
D 2x
E 4x
G
B 8x
C 2x
D 2x
E 2x
D 2x
H
Comments