System Of A Down - Chic N Stu Chords & Tabs

 

Chic N Stu Chords & Tabs

System Of A Down Chords & Tabs

Version: 2 Type: Bass Tab 0 ratings
1 star 2 stars 3 stars 4 stars 5 stars
comments

Chic N Stu Bass Tab

Artist : System of a Down
Album  : Steal This Album!
Song   : Chic 'N' Stu
Tabbed by : Sean Rea


F|---------------------|---------------------|---------------------|
C|-11-0-11-0-11-0-11-0-|---------------------|---------------------|
G|---------------------|---------------------|---------------------|
C|---------------------|-11-0-11-0-11-0-11-0-|-11------------------|
                    x4                    x8                    x2

F|--------------------------------------|----|
C|--------------------------------------|----|
G|--------------------------------------|----|
C|-11--11-0-11--11-0-11--11-0-11-0-11-0-|-11-|
                                   x4

F|---------------------|---------------------|---------------------|
C|-11-0-11-0-11-0-11-0-|---------------------|---------------------|
G|---------------------|---------------------|---------------------|
C|---------------------|-11-0-11-0-11-0-11-0-|-11------------------|
                    x2                    x8                    x2
[ Tab from: http://www.guitartabs.cc/tabs/s/system_of_a_down/chic_n_stu_btab_ver_2.html ]
F|--------------------------------------|------------------------------------------|
C|--------------------------------------|------------------------------------------|
G|--------------------------------------|------------------------------------------|
C|-11--11-0-11--11-0-11--11-0-11-0-11-0-|-12---11--11-0-11--11-0-11--11-0-11-0-11-0|
                                     x6                                          

F|-----------|-----------|
C|-----------|-----------|
G|-----------|-----------|
C|-12--------|-15\12--12-|


F|-----------|-----------|-----------|-----------|
C|-----------|-----------|-----------|-----------|
G|-----------|-----------|-----------|-----------|
C|-11--------|-11-11-----|-12--------|-12-12-----|
                                              x2

F|---------------------|---------------------|
C|---------------------|---------------------|
G|---------------------|---------------------|
C|-11-0-11-0-11-0-11-0-|-11------------------|
                    x8                    x2

F|--------------------------------------|----|
C|--------------------------------------|----|
G|--------------------------------------|----|
C|-11--11-0-11--11-0-11--11-0-11-0-11-0-|-11-|
                                   x6
Comments