System Of A Down - Byob Chords & Tabs

 

Byob Chords & Tabs

System Of A Down Chords & Tabs

Version: 3 Type: Tab 3 ratings
1 star 2 stars 3 stars 4 stars 5 stars
comments

Byob Tab

   
#----------------------------------PLEASE NOTE---------------------------------#
#This file is the author's own work and represents their interpretation of the #
#song. You may only use this file for private study, scholarship, or research. #
#------------------------------------------------------------------------------#

B.Y.O.B (BRING YOUR OWN BOMBS)
As recorded by System Of A Down
(From the 2005 Album MEZMERIZE)

Transcribed by Cali_8o5
	

Gtr I (Db Ab Db Gb Bb Eb) - 'Untitled'

 Intro
  Q=155
  N.C.
 4/4
  Gtr I
  S S S S S S S S S S S S S S S S     S S S S S S S S S S S S S S S S
|---------------------------------||------------------------------------||
|---------------------------------||o----------------------------------o||
|---------------------------------||------------------------------------||
|-7p0-0-0-0-0-0-0-7p0-0-8p0-0-7p0-||--7p0-0-0-0-0-0-0-7p0-0-8p0-0-7p0---||
|---------------------------------||o----------------------------------o||
|---------------------------------||------------------------------------||


  S S S S S S S S S S S S S S S S     S S S S S S S S S S S S S S S S
|---------------------------------||-----------------------------------||
|---------------------------------||o---------------------------------o||
|---------------------------------||-----------------------------------||
|-7p0-0-8p0-0-7p0-7p0-0-8p0-0-7p0-||--7p0-0-8p0-0-7p0-7p0-0-8p0-0-7p0--||
|---------------------------------||o---------------------------------o||
|---------------------------------||-----------------------------------||


  N.C.                                          E5 F5  G5
  E S S S S S S S S S S S S S S   E S S S S S S E.  E.  E
|-------------------------------|-------------------------|
|-------------------------------|-------------------------|
|-------------------------------|-------------------------|
|-------------------------------|---------------9--10--12-|
|-------------------------------|---------------7---8--10-|
|-0-0-8-0-0-7-8-8-0-0-8-0-0-7-8-|-0-0-8-0-0-7-8-----------|


  N.C.                                          G5  F5  E5
  E S S S S S S S S S S S S S S   E S S S S S S  E.  E. E
|-------------------------------|-------------------------|
|-------------------------------|-------------------------|
|-------------------------------|-------------------------|
|-------------------------------|---------------12--10--9-|
|-------------------------------|---------------10---8--7-|
|-0-0-8-0-0-7-8-8-0-0-8-0-0-7-8-|-0-0-8-0-0-7-8-----------|


  N.C.                                          E5 F5  G5
  E S S S S S S S S S S S S S S   E S S S S S S E.  E.  E
|-------------------------------|-------------------------|
|-------------------------------|-------------------------|
|-------------------------------|-------------------------|
|-------------------------------|---------------9--10--12-|
|-------------------------------|---------------7---8--10-|
|-0-0-8-0-0-7-8-8-0-0-8-0-0-7-8-|-0-0-8-0-0-7-8-----------|


  N.C.                                          G5  F5  E5  N.C.
  E S S S S S S S S S S S S S S   E S S S S S S  E.  E. E   W
|-------------------------------|-------------------------|------|
|-------------------------------|-------------------------|------|
|-------------------------------|-------------------------|------|
|-------------------------------|---------------12--10--9-|------|
|-------------------------------|---------------10---8--7-|------|
|-0-0-8-0-0-7-8-8-0-0-8-0-0-7-8-|-0-0-8-0-0-7-8-----------|------|


   Verse
    Slower Q=105
    N.C.                                  F5
    PM----------------------------------|
    |-------3-------| |-------3-------|
    S S S S S S S S S S S S S S S S S S e  E
||-------------------------------------------|
||o------------------------------------------|
||-------------------------------------------|
||----------------------------------------10-|
||o----------------------------------------8-|
||--7-0-0-8-0-0-7-0-0-8-0-0-7-0-0-8-0-0-7----|


  N.C.                    G5  F5 E5
  PM--------------------|
  |----------3----------|
  S S S S S S S S S S S S  Q   E E
|------------------------------------||
|-----------------------------------o||
|------------------------------------||
|-------------------------12--10-9---||
|-------------------------10---8-7--o||
|-7-0-0-8-0-0-7-0-0-8-0-0------------||


  N.C.
  PM-----------------------------------------------
  |----------3----------| |----------3----------|
  S S S S S S S S S S S S S S S S S S S S S S S S
|-------------------------------------------------|
|-------------------------------------------------|
|-------------------------------------------------|
|-------------------------------------------------|
|-------------------------------------------------|
|-7-0-0-8-0-0-7-0-0-8-0-0-7-0-0-8-0-0-7-0-0-8-0-0-|


                                        F5
 -------------------------------------|
  |--------3--------| |------3------|
  S S S S S S S S S S S S S S S S S S e  E
|--------------------------------------------|
|--------------------------------------------|
|--------------------------------------------|
|---------------------------------------10---|
|----------------------------------------8---|
|-7-0-0-8-0-0-7-0-0-8-0-0-7-0-0-8-0-0-7------|


  N.C.
  PM-----------------------------------------------
  |---------3---------| |-----------3-----------|
  S S S S S S S S S S S S S S S S S S S S S S S S
|-------------------------------------------------|
|-------------------------------------------------|
|-------------------------------------------------|
|-------------------------------------------------|
|-------------------------------------------------|
|-7-0-0-8-0-0-7-0-0-8-0-0-7-0-0-8-0-0-7-0-0-8-0-0-|


                          G5 F5 E5
 -----------------------|       PM
  |----------3----------|
  S S S S S S S S S S S S Q  E. S
|---------------------------------|
|---------------------------------|
|---------------------------------|
|---------------------------------|
|-------------------------5--3--2-|
|-7-0-0-8-0-0-7-0-0-8-0-0-5--3--2-|


 Pre-Chorus
  F5E5D5      E5F5G5F5E5D5  E5D5C5    N.C.
  PM|       PM----------------|       PM--|
  S S q  e. S S S S S S S   S S q  e. S S S S S E
|-------------------------|-----------------------|
|-------------------------|-----------------------|
|-------------------------|-----------------------|
|-------------------------|-----5--5--------3p2-0-|
|-3-2-0--0--0-2-3-5-3-2-0-|-2-0-3--3--0-3-5-------|
|-3-2-0--0--0-2-3-5-3-2-0-|-2-0-------------------|


  F5E5D5      G5A5BbA5G5F5  G5F5E5 N.C.
  PM|       PM----------------|
  S S q  e. S S S S S S S   S S q  S +S      +S  +S      +S  +S      +Q
|-------------------------|-----------------------------------------------|
|-------------------------|-----------------------------------------------|
|-------------------------|-----------------------------------------------|
|-------------------------|-----------------------------------------------|
|-3-2-0--0--0-5-7-8-7-5-3-|-5-3-2--3-(3)b4.5-(3)-(3)b4.5-(3)-(3)b4.5-(3)--|
|-3-2-0--0--0-5-7-8-7-5-3-|-5-3-2-----------------------------------------|


 Chorus
  D5                     C5
  PM--|   PM  PM-------------|   PM  PM-----|
  S S e e e S S e. S e   S S e e e S S e. S e
|----------------------|----------------------|
|----------------------|----------------------|
|----------------------|----------------------|
|----------------------|-5-5-5---5---5-5--5-5-|
|-0-0-0---0---0-0--0-0-|-3-3-3---3---3-3--3-3-|
|-0-0-0---0---0-0--0-0-|----------------------|


  D5              G5A5BbA5G5F5  G5F5E5 N.C.
  PM--|   PM----------------------|
  S S e E e +s  S S S S S S S   S S q  S +S      +S  +S      +S  +S      +Q
|-----------------------------|-----------------------------------------------|
|-----------------------------|-----------------------------------------------|
|-----------------------------|-----------------------------------------------|
|-----------------------------|-----------------------------------------------|
|-0-0-0---0-(0)-0-5-7-8-7-5-3-|-5-3-2--3-(3)b4.5-(3)-(3)b4.5-(3)-(3)b4.5-(3)--|
|-0-0-0---0-(0)-0-5-7-8-7-5-3-|-5-3-2-----------------------------------------|


  D5                     C5
  PM--|   PM  PM-------------|   PM  PM-----|
  S S e e e S S e. S e   S S e e e S S e. S e
|----------------------|----------------------|
|----------------------|----------------------|
|----------------------|----------------------|
|----------------------|-5-5-5---5---5-5--5-5-|
|-0-0-0---0---0-0--0-0-|-3-3-3---3---3-3--3-3-|
|-0-0-0---0---0-0--0-0-|----------------------|


  D5              G5A5BbA5G5F5  G5F5E5 N.C.
  PM--|   PM----------------------|
  S S e E e +s  S S S S S S S   S S q  S +S      +H
|-----------------------------|-------------------------|
|-----------------------------|-------------------------|
|-----------------------------|-------------------------|
|-----------------------------|-------------------------|
|-0-0-0---0-(0)-0-5-7-8-7-5-3-|-5-3-2--3-(3)b4.5-(3)----|
|-0-0-0---0-(0)-0-5-7-8-7-5-3-|-5-3-2-------------------|


 Verse
  N.C.
  PM-----------------------------------------------
  |-----------3-----------| |---------3---------|
  S S S S S S S S S S S S S S S S S S S S S S S S
|-------------------------------------------------|
|-------------------------------------------------|
|-------------------------------------------------|
|-------------------------------------------------|
|-------------------------------------------------|
|-7-0-0-8-0-0-7-0-0-8-0-0-7-0-0-8-0-0-7-0-0-8-0-0-|


                                        F5
 -------------------------------------|
  |--------3--------| |------3------|
  S S S S S S S S S S S S S S S S S S e  E
|--------------------------------------------|
|--------------------------------------------|
|--------------------------------------------|
|---------------------------------------10---|
|----------------------------------------8---|
|-7-0-0-8-0-0-7-0-0-8-0-0-7-0-0-8-0-0-7------|


  N.C.
  PM-----------------------------------------------
  |------3------| |-------3-------| |-----3-----|
  S S S S S S S S S S S S S S S S S S S S S S S S
|-------------------------------------------------|
|-------------------------------------------------|
|-------------------------------------------------|
|-------------------------------------------------|
|-------------------------------------------------|
|-7-0-0-8-0-0-7-0-0-8-0-0-7-0-0-8-0-0-7-0-0-8-0-0-|


                          G5  F5 E5
 -----------------------|
  |----3----| |----3----|
  S S S S S S S S S S S S  Q   E E
|----------------------------------|
|----------------------------------|
|----------------------------------|
|-------------------------12--10-9-|
|-------------------------10---8-7-|
|-7-0-0-8-0-0-7-0-0-8-0-0----------|


  N.C.                                  F5
  PM----------------------------------|
  |--------3--------| |------3------|
  S S S S S S S S S S S S S S S S S S e  E
|------------------------------------------|
|------------------------------------------|
|------------------------------------------|
|---------------------------------------10-|
|----------------------------------------8-|
|-7-0-0-8-0-0-7-0-0-8-0-0-7-0-0-8-0-0-7----|


  N.C.                    G5  F5 E5
  PM--------------------|
  |-----3-----| |---3---|
  S S S S S S S S S S S S  Q   E E
|------------------------------------|
|------------------------------------|
|------------------------------------|
|-------------------------12--10-9---|
|-------------------------10---8-7---|
|-7-0-0-8-0-0-7-0-0-8-0-0------------|


  N.C.                                  F5   N.C.                    G5 F5 E5
  PM----------------------------------|      PM--------------------|       PM
  |--------3--------| |------3------|        |----3----| |----3----|
  S S S S S S S S S S S S S S S S S S e  E   S S S S S S S S S S S S Q  E. S
|------------------------------------------|-----------------------------------|
|------------------------------------------|-----------------------------------|
|------------------------------------------|-----------------------------------|
|---------------------------------------10-|-----------------------------------|
|----------------------------------------8-|-------------------------5--3--2---|
|-7-0-0-8-0-0-7-0-0-8-0-0-7-0-0-8-0-0-7----|-7-0-0-8-0-0-7-0-0-8-0-0-5--3--2---|


 Pre-Chorus
  F5E5D5      E5F5G5F5E5D5  E5D5C5    N.C.
  PM|       PM----------------|       PM--|
  S S q  e. S S S S S S S   S S q  e. S S S S S E
|-------------------------|-----------------------|
|-------------------------|-----------------------|
|-------------------------|-----------------------|
|-------------------------|-----5--5--------3p2-0-|
|-3-2-0--0--0-2-3-5-3-2-0-|-2-0-3--3--0-3-5-------|
|-3-2-0--0--0-2-3-5-3-2-0-|-2-0-------------------|


  F5E5D5      G5A5BbA5G5F5  G5F5E5 N.C.
  PM|       PM----------------|
  S S q  e. S S S S S S S   S S q  S +S      +S  +S      +S  +S      +Q
|-------------------------|-----------------------------------------------|
|-------------------------|-----------------------------------------------|
|-------------------------|-----------------------------------------------|
|-------------------------|-----------------------------------------------|
|-3-2-0--0--0-5-7-8-7-5-3-|-5-3-2--3-(3)b4.5-(3)-(3)b4.5-(3)-(3)b4.5-(3)--|
|-3-2-0--0--0-5-7-8-7-5-3-|-5-3-2-----------------------------------------|


   Chorus
    D5                     C5
    PM--|   PM  PM-------------|   PM  PM-----|
    S S e e e S S e. S e   S S e e e S S e. S e
||-----------------------|----------------------|
||o----------------------|----------------------|
||-----------------------|----------------------|
||-----------------------|-5-5-5---5---5-5--5-5-|
||o-0-0-0---0---0-0--0-0-|-3-3-3---3---3-3--3-3-|
||--0-0-0---0---0-0--0-0-|----------------------|

[ Tab from: http://www.guitartabs.cc/tabs/s/system_of_a_down/byob_tab_ver_3.html ]
  D5              G5A5BbA5G5F5
  PM--|   PM-------------------
  S S e E e +s  S S S S S S S
|-----------------------------|
|-----------------------------|
|-----------------------------|
|-----------------------------|
|-0-0-0---0-(0)-0-5-7-8-7-5-3-|
|-0-0-0---0-(0)-0-5-7-8-7-5-3-|


  G5F5E5 N.C.
 ---|
  S S q  S +S      +S  +S      +S  +S      +Q    3x
|------------------------------------------------||
|-----------------------------------------------o||
|------------------------------------------------||
|------------------------------------------------||
|-5-3-2--3-(3)b4.5-(3)-(3)b4.5-(3)-(3)b4.5-(3)--o||
|-5-3-2------------------------------------------||


  D5                     C5
  PM--|   PM  PM-------------|   PM  PM-----|
  S S e e e S S e. S e   S S e e e S S e. S e
|----------------------|----------------------|
|----------------------|----------------------|
|----------------------|----------------------|
|----------------------|-5-5-5---5---5-5--5-5-|
|-0-0-0---0---0-0--0-0-|-3-3-3---3---3-3--3-3-|
|-0-0-0---0---0-0--0-0-|----------------------|


  D5              G5A5BbA5G5F5  G5F5E5 N.C.
  PM--|   PM----------------------|
  S S e E e +s  S S S S S S S   S S q  S +S      +H
|-----------------------------|-------------------------|
|-----------------------------|-------------------------|
|-----------------------------|-------------------------|
|-----------------------------|-------------------------|
|-0-0-0---0-(0)-0-5-7-8-7-5-3-|-5-3-2--3-(3)b4.5-(3)----|
|-0-0-0---0-(0)-0-5-7-8-7-5-3-|-5-3-2-------------------|


   Bridge
    Faster Q=155
    G5    A5    C5 A5BbA5BbA5  G5    A5    C5 A5BbA5BbA5
    S +S  E E E  E S E S S S   S +S  E E E  E S E S S S
||---------------------------|--------------------------|
||o--------------------------|--------------------------|
||---------------------------|--------------------------|
||---------------------------|--------------------------|
||o-5-(5)s7-7-7-10-7-8-7-8-7-|-5-(5)s7-7-7-10-7-8-7-8-7-|
||--5-(5)s7-7-7-10-7-8-7-8-7-|-5-(5)s7-7-7-10-7-8-7-8-7-|


  G5    A5    C5 A5BbA5BbA5  G5    A5    C5 A5BbA5BbA5
  S +S  E E E  E S E S S S   S +S  E E E  E S E S S S
|--------------------------|-----------------------------||
|--------------------------|----------------------------o||
|--------------------------|-----------------------------||
|--------------------------|-----------------------------||
|-5-(5)s7-7-7-10-7-8-7-8-7-|-5-(5)s7-7-7-10-7-8-7-8-7---o||
|-5-(5)s7-7-7-10-7-8-7-8-7-|-5-(5)s7-7-7-10-7-8-7-8-7----||


    D5      Bb5       A5      N.C.
    e e e e e e e e   e e e e S S S S S S S S
||------------------|-------------------------|
||o-----------------|-------------------------|
||------------------|-------------------------|
||--7-7-7-7---------|-------------------------|
||o-5-5-5-5-8-8-8-8-|-7-7-7-7-7-0-0-8-0-0-7-0-|
||----------8-8-8-8-|-7-7-7-7-----------------|


                    1.
  D5      Bb5       A5      N.C.
  e e e e e e e e   e e e e S S S S S S S S
|-----------------|--------------------------||
|-----------------|-------------------------o||
|-----------------|--------------------------||
|-7-7-7-7---------|--------------------------||
|-5-5-5-5-8-8-8-8-|-7-7-7-7-7-0-0-8-0-0-7-0-o||
|---------8-8-8-8-|-7-7-7-7------------------||


  2.
  N.C.
  S S S S S S S S S S S S S S S S   S S S S S S S S S S S S S S S S
|---------------------------------|---------------------------------|
|---------------------------------|---------------------------------|
|---------------------------------|---------------------------------|
|---------------------------------|---------------------------------|
|-7p0-0-0-0-0-0-0-7p0-0-8p0-0-7p0-|-7p0-0-0-0-0-0-0-7p0-0-8p0-0-7p0-|
|---------------------------------|---------------------------------|


  S S S S S S S S S S S S S S S S   e E H.
|---------------------------------|-----------|
|---------------------------------|-----------|
|---------------------------------|-----------|
|---------------------------------|-----------|
|-7p0-0-0-0-0-0-0-7p0-0-8p0-0-7p0-|-7---------|
|---------------------------------|-----------|


 Verse
  Slower Again Q=105
  N.C.
  PM-----------------------------------------------
  |--------3--------| |-----3-----| |-----3-----|
  S S S S S S S S S S S S S S S S S S S S S S S S
|-------------------------------------------------|
|-------------------------------------------------|
|-------------------------------------------------|
|-------------------------------------------------|
|-------------------------------------------------|
|-7-0-0-8-0-0-7-0-0-8-0-0-7-0-0-8-0-0-7-0-0-8-0-0-|


                                        F5
 -------------------------------------|
  |---------3---------| |-----3-----|
  S S S S S S S S S S S S S S S S S S e  E
|--------------------------------------------|
|--------------------------------------------|
|--------------------------------------------|
|---------------------------------------10---|
|----------------------------------------8---|
|-7-0-0-8-0-0-7-0-0-8-0-0-7-0-0-8-0-0-7------|


  N.C.
  PM-----------------------------------------------
  |--------3--------| |------3------| |----3----|
  S S S S S S S S S S S S S S S S S S S S S S S S
|-------------------------------------------------|
|-------------------------------------------------|
|-------------------------------------------------|
|-------------------------------------------------|
|-------------------------------------------------|
|-7-0-0-8-0-0-7-0-0-8-0-0-7-0-0-8-0-0-7-0-0-8-0-0-|


                          G5  F5 E5
 -----------------------|
  |----3----| |----3----|
  S S S S S S S S S S S S  Q   E E
|----------------------------------|
|----------------------------------|
|----------------------------------|
|-------------------------12--10-9-|
|-------------------------10---8-7-|
|-7-0-0-8-0-0-7-0-0-8-0-0----------|


  N.C.                                  F5
  PM----------------------------------|
  |-------3-------| |-------3-------|
  S S S S S S S S S S S S S S S S S S e  E
|------------------------------------------|
|------------------------------------------|
|------------------------------------------|
|---------------------------------------10-|
|----------------------------------------8-|
|-7-0-0-8-0-0-7-0-0-8-0-0-7-0-0-8-0-0-7----|


  N.C.                    G5  F5 E5
  PM--------------------|
  |----3----| |----3----|
  S S S S S S S S S S S S  Q   E E
|------------------------------------|
|------------------------------------|
|------------------------------------|
|-------------------------12--10-9---|
|-------------------------10---8-7---|
|-7-0-0-8-0-0-7-0-0-8-0-0------------|


  N.C.                                  F5   N.C.                    G5 F5 E5
  PM----------------------------------|      PM--------------------|       PM
  |-------3-------| |-------3-------|        |---3---| |-----3-----|
  S S S S S S S S S S S S S S S S S S e  E   S S S S S S S S S S S S Q  E. S
|------------------------------------------|-----------------------------------|
|------------------------------------------|-----------------------------------|
|------------------------------------------|-----------------------------------|
|---------------------------------------10-|-----------------------------------|
|----------------------------------------8-|-------------------------5--3--2---|
|-7-0-0-8-0-0-7-0-0-8-0-0-7-0-0-8-0-0-7----|-7-0-0-8-0-0-7-0-0-8-0-0-5--3--2---|


 Pre-Chorus
  F5E5D5      E5F5G5F5E5D5  E5D5C5    N.C.
  PM|       PM----------------|       PM--|
  S S q  e. S S S S S S S   S S q  e. S S S S S E
|-------------------------|-----------------------|
|-------------------------|-----------------------|
|-------------------------|-----------------------|
|-------------------------|-----5--5--------3p2-0-|
|-3-2-0--0--0-2-3-5-3-2-0-|-2-0-3--3--0-3-5-------|
|-3-2-0--0--0-2-3-5-3-2-0-|-2-0-------------------|


  F5E5D5      G5A5BbA5G5F5  G5F5E5 N.C.
  PM|       PM----------------|
  S S q  e. S S S S S S S   S S q  S +S      +S  +S      +S  +S      +Q
|-------------------------|-----------------------------------------------|
|-------------------------|-----------------------------------------------|
|-------------------------|-----------------------------------------------|
|-------------------------|-----------------------------------------------|
|-3-2-0--0--0-5-7-8-7-5-3-|-5-3-2--3-(3)b4.5-(3)-(3)b4.5-(3)-(3)b4.5-(3)--|
|-3-2-0--0--0-5-7-8-7-5-3-|-5-3-2-----------------------------------------|


   Chorus
    D5                     C5
    PM--|   PM  PM-------------|   PM  PM-----|
    S S e e e S S e. S e   S S e e e S S e. S e
||-----------------------|----------------------|
||o----------------------|----------------------|
||-----------------------|----------------------|
||-----------------------|-5-5-5---5---5-5--5-5-|
||o-0-0-0---0---0-0--0-0-|-3-3-3---3---3-3--3-3-|
||--0-0-0---0---0-0--0-0-|----------------------|


  D5              G5A5BbA5G5F5
  PM--|   PM-------------------
  S S e E e +s  S S S S S S S
|-----------------------------|
|-----------------------------|
|-----------------------------|
|-----------------------------|
|-0-0-0---0-(0)-0-5-7-8-7-5-3-|
|-0-0-0---0-(0)-0-5-7-8-7-5-3-|


  G5F5E5 N.C.
 ---|
  S S q  S +S      +S  +S      +S  +S      +Q    3x
|------------------------------------------------||
|-----------------------------------------------o||
|------------------------------------------------||
|------------------------------------------------||
|-5-3-2--3-(3)b4.5-(3)-(3)b4.5-(3)-(3)b4.5-(3)--o||
|-5-3-2------------------------------------------||


  D5                     C5
  PM--|   PM  PM-------------|   PM  PM-----|
  S S e e e S S e. S e   S S e e e S S e. S e
|----------------------|----------------------|
|----------------------|----------------------|
|----------------------|----------------------|
|----------------------|-5-5-5---5---5-5--5-5-|
|-0-0-0---0---0-0--0-0-|-3-3-3---3---3-3--3-3-|
|-0-0-0---0---0-0--0-0-|----------------------|


   Bridge
    Q=155
    D5      Bb5       A5      N.C.
    e e e e e e e e   e e e e S S S S S S S S
||------------------|-------------------------|
||o-----------------|-------------------------|
||------------------|-------------------------|
||--7-7-7-7---------|-------------------------|
||o-5-5-5-5-8-8-8-8-|-7-7-7-7-7-0-0-8-0-0-7-0-|
||----------8-8-8-8-|-7-7-7-7-----------------|


                    1.
  D5      Bb5       A5      N.C.
  e e e e e e e e   e e e e S S S S S S S S
|-----------------|--------------------------||
|-----------------|-------------------------o||
|-----------------|--------------------------||
|-7-7-7-7---------|--------------------------||
|-5-5-5-5-8-8-8-8-|-7-7-7-7-7-0-0-8-0-0-7-0-o||
|---------8-8-8-8-|-7-7-7-7------------------||


  2.
  N.C.
  S S S S S S S S S S S S S S S S   S S S S S S S S S S S S S S S S
|---------------------------------|---------------------------------|
|---------------------------------|---------------------------------|
|---------------------------------|---------------------------------|
|---------------------------------|---------------------------------|
|-7p0-0-0-0-0-0-0-7p0-0-8p0-0-7p0-|-7p0-0-0-0-0-0-0-7p0-0-8p0-0-7p0-|
|---------------------------------|---------------------------------|


                                     TP
  S S S S S S S S S S S S S S S S    W
|---------------------------------|--------|
|---------------------------------|--------|
|---------------------------------|--------|
|---------------------------------|--------|
|-7p0-0-0-0-0-0-0-7p0-0-8p0-0-7p0-|--------|
|---------------------------------|-15\----|


   Outro
    N.C.
    S S S S S S S S S S S S S S S S   S S S S S S S S S S S S S S S S   4x
||----------------------------------|-----------------------------------||
||o---------------------------------|----------------------------------o||
||----------------------------------|-----------------------------------||
||----------------------------------|-----------------------------------||
||o-0-0-0-0-0-0-0-0-7p0-0-8p0-0-7p0-|-0-0-0-0-0-0-0-0-7p0-0-8p0-0-7p0--o||
||----------------------------------|-----------------------------------||



Duration Legend
---------------
W - whole; H - half; Q - quarter; E - 8th; S - 16th; T - 32nd; X - 64th; a - acciaccatura
+ - note tied to previous; . - note dotted; .. - note double dotted
Uncapitalized letters represent notes that are staccato (1/2 duration)
Irregular groupings are notated above the duration line
Duration letters will always appear directly above the note/fret number it represents the
duration for.  Duration letters with no fret number below them represent rests.  Multi-
bar rests are notated in the form Wxn, where n is the number of bars to rest for.  Low
melody durations appear below the staff

Tablature Legend
----------------
 h   - hammer-on
 p   - pull-off
 b   - bend
 pb  - pre-bend
 r   - bend release (if no number after the r, then release immediately)
 /\  - slide into or out of (from/to "nowhere")
 s   - legato slide
 S   - shift slide
 - natural harmonic
[n]  - artificial harmonic
n(n) - tapped harmonic
 ~   - vibrato
 tr  - trill
 T   - tap
 TP  - trem. picking
 PM  - palm muting
\n/  - tremolo bar dip; n = amount to dip
 \n  - tremolo bar down
 n/  - tremolo bar up
/n\  - tremolo bar inverted dip
 =   - hold bend; also acts as connecting device for hammers/pulls
  - volume swell (louder/softer)
 x   - on rhythm slash represents muted slash
 o   - on rhythm slash represents single note slash

Misc Legend
-----------
 |  - bar
||  - double bar
||o - repeat start
o|| - repeat end
*|  - double bar (ending)
 :  - bar (freetime)
 $  - Segno
 &  - Coda
Tempo markers -  = BPM(8/16=s8/s16), where s8 = swing 8ths, s16 = swing 16ths
Comments