System Of A Down - Bubbles Chords & Tabs

 

Bubbles Chords & Tabs

System Of A Down Chords & Tabs

Version: 1 Type: Tab 2 ratings
1 star 2 stars 3 stars 4 stars 5 stars
comments

Bubbles Tab

   
-=Bubbles=-System of a down
===========
tabs by Javier Rodríguez
(C-G-C-F-A-D)

A
pm........
1:---------|------------------------------------|------------------------------------|
2:---------|------------------------------------|------------------------------------|
3:---------|------------------------------------|------------------------------------|
4:-6-6-6-6-|-3-5-5-5--3-5-5-5--3-5-5-5--3-5-5-5-|-3-5-5-5--3-5-5-5--3-5-5-5--6-6-6-6-|
5:-6-6-6-6-|-3-5-5-5--3-5-5-5--3-5-5-5--3-5-5-5-|-3-5-5-5--3-5-5-5--3-5-5-5--6-6-6-6-|
6:-6-6-6-6-|-3-5-5-5--3-5-5-5--3-5-5-5--3-5-5-5-|-3-5-5-5--3-5-5-5--3-5-5-5--6-6-6-6-|
                                                                   pm.....
1:------------------------------------|------------------------------------|
2:------------------------------------|------------------------------------|
3:------------------------------------|------------------------------------|
4:-3-5-5-5--3-5-5-5--3-5-5-5--3-5-5-5-|-3-5-5-5--3-5-5-5--3-5-5-5--6-6-6-6-|
5:-3-5-5-5--3-5-5-5--3-5-5-5--3-5-5-5-|-3-5-5-5--3-5-5-5--3-5-5-5--6-6-6-6-|
6:-3-5-5-5--3-5-5-5--3-5-5-5--3-5-5-5-|-3-5-5-5--3-5-5-5--3-5-5-5--6-6-6-6-|


B
pm.............................
1:------------------------------|
2:------------------------------|
3:------------------------------|
4:-3-5---5-3--5---3-5---5-6-6-6-|
5:-3-5---5-3--5---3-5---5-6-6-6-|
6:-3-5---5-3--5---3-5---5-6-6-6-|

[ Tab from: http://www.guitartabs.cc/tabs/s/system_of_a_down/bubbles_tab.html ]
C
1:-----------------------|---------------------------|
2:-----------------------|---------------------------|
3:-55-77-88-77-55-444444-|-55-77-88-77-1010-88-77-88-|
4:-----------------------|---------------------------|
5:-----------------------|---------------------------|
6:-----------------------|---------------------------|


D
1:------------------------------------|
2:------------------------------------|
3:------------------------------------|
4:-3-5-5-5--3-5-5-5--3-5-5-5--6-6-6-6-|
5:-3-5-5-5--3-5-5-5--3-5-5-5--6-6-6-6-|
6:-3-5-5-5--3-5-5-5--3-5-5-5--6-6-6-6-|


E
1:-----------------------------|
2:-----------------------------|
3:-----------------------------|
4:-----------------------------|
5:-----------------------------|
6:-3-5--5-3--5---3-5---5-6-6-6-|


F
1:---|
2:---|
3:---|
4:-5-|
5:-5-|
6:-5-|


G
1:------------|
2:------------|
3:------------|
4:------------|
5:------------|
6:-3-8--5-6-5-|


H
pm..........................
1:---------------------------|
2:---------------------------|
3:-55-77-88-77-1010-88-77-88-|
4:---------------------------|
5:---------------------------|
6:---------------------------|


I
1:-----------------------------|
2:-----------------------------|
3:-----------------------------|
4:-----------------------6-6-6-|
5:-----------------------6-6-6-|
6:-3-5--5-3--5---3-5---5-6-6-6-|



ORDER:
=====

A
B 2x
C 4x
D 2x
B 2x
C 6x
D 2x
B 2x
E 2x
F 4x
G 7x
H
G 7x
H
D 4x
B 2x
E
I
Comments