System Of A Down - Bounce Chords & Tabs

 

Bounce Chords & Tabs

System Of A Down Chords & Tabs

Version: 8 Type: Tab 0 ratings
1 star 2 stars 3 stars 4 stars 5 stars
comments

Bounce Tab

   
Band:  System of a Down
Album: Toxicity
Song:  Bounce
Tuning:  C,G,C,F,A,D 
Transcribed by:  Haewire


CHORUS
|--------------------------------|        
|--------------------------------|
|--------------------------------|
|--------------------------------|
|-8--7-7-8-8-7-7-8-8-7-7-8-8-0---|
|-8--7-7-8-8-7-7-8-8-7-7-8-8-0---|


Verse 1  (palm muted)
|----------------------------|----------------------------|
|----------------------------|----------------------------|
|----------------------------|----------------------------|
|---7-8----7-8----7-8----7-8-|---6-7----6-7----6-7----6-7-|
|-5------5------5------5-----|-4------4------4------4-----|
|----------------------------|----------------------------|


Chorus again


Verse 2                                  4x
|-----------------------------------|----------------------
|-----------------------------------|----------------------
|-----------------------------------|----------------------
|---9-10----9-10-----9-10-----9-10--|---9-8-----9-8-----9-8
|-7-------7--------7--------7-------|-6-------6-------6---
|-----------------------------------|----------------------


Chorus again

[ Tab from: http://www.guitartabs.cc/tabs/s/system_of_a_down/bounce_tab_ver_8.html ]
Bridge 1 (let notes ring)
|------------------------|---------------------|
|------------------------|---------------------|
|---10----10----10----10-|---9----9----9----9--|
|-8-----8-----8-----8----|-8----8----8----8----|
|------------------------|---------------------|
|------------------------|---------------------|


Bridge 2
|----------------------------------------|
|----------------------------------------|
|----------------------------------------|
|----------------------------------------|
|-8-8-0-----8-8-0-----8-8-0-----8-8-0----|
|-8-8-0-----8-8-0-----8-8-0-----8-8-0----|


Bridge 3  (play 2x)
|---------------------------------------------|
|---------------------------------------------|
|------10---------10--------10---------10-----|
|-------8----------8---------8----------8-----|
|-0-0--------0-0-------0-0--------0-0---------|
|-0-0--------0-0-------0-0--------0-0---------|
  ...        ...       ...        ...
  pm         pm        pm         pm

|---------------------------------------------|
|---------------------------------------------|
|-------9----------9---------9----------9-----|
|-------8----------8---------8----------8-----|
|-0-0--------0-0-------0-0--------0-0---------|
|-0-0--------0-0-------0-0--------0-0---------|
  ...        ...       ...        ...
  pm         pm        pm         pm


Bridge (palm mute) (tabbed for bass)
|----------------------------------------------------------
|----------------------------------------------------------
|----------------------------------------------------------
|----------------------------------------------------------
|----------------------------------------------------------
|-8-8-0--8-8-0--8-8-0--8-8-0--8-7-12--8-7-12--8-7-12--8-7-1
 |..........................|
          play 8x



Chorus again
Comments