System Of A Down - Boom Chords & Tabs

 

Boom Chords & Tabs

System Of A Down Chords & Tabs

Version: 6 Type: Tab 0 ratings
1 star 2 stars 3 stars 4 stars 5 stars
comments

Boom Tab

System of a Down
Boom
Drop "D" Tuning	P=Palm Mute

   Verse
D|------------------------------------------------------------------------------------------------------------|
A|------------------------------------------------------------------------------------------------------------|
F|-----------------------------------------------------------------------------------------------------17-17--|
C|---------------15-15-13-13-15-15-13-13-13-13-11-11-13-13-11-11---17-19-20-----------------------------------|
G|--14-15-17---12-13-15---------------------------------------------------------------------------------------|
C|------------------------------------------------------------------------------------------------------------|

   Chorus
C|--0--p0--3-2---|
G|--0--p0--3-2---|
C|--0--p0--3-2---|
[ Tab from: http://www.guitartabs.cc/tabs/s/system_of_a_down/boom_tab_ver_6.html ]
   Verse
D|-----------------------------------------------------------------------------------------------------------|
A|-----------------------------------------------------------------------------------------------------------|
F|----------------------------------------------------------------------------------------------------17-17--|
C|-------------15-15-13-13-15-15-13-13-13-13-11-11-13-13-11-11---17-19-20------------------------------------|
G|--14-15-17---12-13-15--------------------------------------------------------------------------------------|
C|-----------------------------------------------------------------------------------------------------------|

   Chorus
C|--0--p0--3-2---|
G|--0--p0--3-2---|
C|--0--p0--3-2---|

   Bridge  2X
C|--7-8-5--5-8-9--5-4-|
G|--7-8-5--5-8-9--5-4-|
C|--7-8-5--5-8-9--5-4-|

   Chorus
C|--0--p0--3-2--0--|
G|--0--p0--3-2--0--|
C|--0--p0--3-2--0--|
		   kritter678
Comments