System Of A Down - Boom Chords & Tabs

 

Boom Chords & Tabs

System Of A Down Chords & Tabs

Version: 4 Type: Tab 0 ratings
1 star 2 stars 3 stars 4 stars 5 stars
comments

Boom Tab

   
Boom-System Of A Down
Steal This Album

Drop C:
C G C F A D


Intro:

pm, 
d-----------------------------------------------------------------
a-----------------------------------------------------------------
f-----------------------------------------------------------------
c-----------------------------------------------------------------
g-----------------------------------------------------------------
c-1---1---0---0---1---1---0---0---1---1---0---0---1---1---0---0---

pm, 
d-----------------------------------------------------------------
a-----------------------------------------------------------------
f-----------------------------------------------------------------
c-----------------------------------------------------------------
g-----------------------------------------------------------------
c-1---1---0---0---1---1---0---0---1---1---0---0---1---1---0-------

Verse:

Riff A: pm

d-----------------------------------------------------------------
a-----------------------------------------------------------------
f-----------------------------------------------------------------
c-----------------7-7-----------------------------7-7-------------
g-5-5-7-7-8-8-7-7-----8-8-7-7-8-8-5-5-7-7-8-8-7-7-----8-8-7-7-8-8-
c-----------------------------------------------------------------

d-----------------------------------------------------------------
a-----------------------------------------------------------------
f-----------------------------------------------------------------
c-----------------6-6-----------------------------6-6-------------
g-4-4-6-6-7-7-6-6-----7-7-6-6-7-7-4-4-6-6-7-7-6-6-----7-7-6-6-7-7-
c-----------------------------------------------------------------

d-----------------------------------------------------------------
a-----------------------------------------------------------------
f-----------------5-5-----------------------------5-5-------------
c-3-3-5-5-6-6-5-5-----6-6-5-5-6-6-3-3-5-5-6-6-5-5-----6-6-5-5-6-6-
g-----------------------------------------------------------------
c-----------------------------------------------------------------

d-----------------------------------------------------------------
a-----------------------------------------------------------------
f-----------------------------------------------------------------
c-----------------8-8-----------------------------8-8-------------
g-6-6-8-8-9-9-8-8-----9-9-8-8-9-9-6-6-8-8-9-9-8-8-----9-9-8-8-9-9-
c-----------------------------------------------------------------

Riff B: pm (gtr. 1)

d-----------------------------------------------------------------
a-----------------------------------------------------------------
f-----------------------------------------------------------------
c-----------------------------------------------------------------
g-5---7-7-8-8-7-7-5-5-7-7-8-8-7-7-5-5-7-7-8-8-7-7-5-5-7-7-8-8-5-5-
c-----------------------------------------------------------------

gtr. 2 pm

d-----------------------------------------------------------------
a-----------------------------------------------------------------
f-14------14------13------13------14------14------13------13------
c-----12------12------12------12------12------12------12------12--
g-----------------------------------------------------------------
c-----------------------------------------------------------------

Riff B: gtr. 1

d-----------------------------------------------------------------
a-----------------------------------------------------------------
f-----------------------------------------------------------------
c---------------------------------2-2-3-3-5-5-3-3-2-2-3-3-5-5-3-3-
g-4-4-5-5-7-7-5-5-4-4-5-5-7-7-5-5---------------------------------
c-----------------------------------------------------------------

gtr. 2 pm

d-----------------------------------------------------------------
a-----------------------------------------------------------------
f-14------14------13------13------14------14------13------13------
c-----12------12------12------12------12------12------12------12--
g-----------------------------------------------------------------
c-----------------------------------------------------------------

Riff C: (gtr. 1)

d-----------------------------------------------------------------
a-----------------12--13--------------------------12--13----------
f-----14--13--14----------------------14--13--14------------------
c-12----------------------15--14--12----------------------15--14--
g-----------------------------------------------------------------
c-----------------------------------------------------------------


gtr. 2
[ Tab from: http://www.guitartabs.cc/tabs/s/system_of_a_down/boom_tab_ver_4.html ]
d-----------------------------------------------------------------
a-----------------------------------------------------------------
f-----------------------------------------------------------------
C-3-3-5-5-6-6-5-5-3-3-5-5-6-6-5-5-3-3-5-5-6-6-5-5-3-3-5-5-6-6-5-5-
g-----------------------------------------------------------------
c-----------------------------------------------------------------

Riff C: (gtr. 1)

d-----------------------------------------------------------------
a-----------------12--13--------------------------12--13----------
f-----14--13--14----------------------14--13--14------------------
c-12----------------------15--14--12----------------------15--14--
g-----------------------------------------------------------------
c-----------------------------------------------------------------

gtr. 2

d-----------------------------------------------------------------
a-----------------------------------------------------------------
f-----------------------------------------------------------------
c-----------------------------------------------------------------
G-6-6-8-8-9-9-8-8-6-6-8-8-9-9-8-8-6-6-8-8-9-9-8-8-6-6-8-8-9-9-8-8-
c-----------------------------------------------------------------

Chorus: Fig. 1

d-----------------------------------------------------------------
a-----------------------------------------------------------------
f-----------------------------------------------------------------
c-----------------------------------------------------------------
g-0-----0-0-0-0---0-----0-0-0-0---0-----0-0-0-0---0-----0-0-0-0---
c-0-----0-0-0-0---0-----0-0-0-0---0-----0-0-0-0---0-----0-0-0-0---
        pm*****|       |*******|       |*******|       |*******|

Fig. 2 (gtr. 1)

d-----------------------------------------------------------------
a-----------------------------------------------------------------
f-----------------------------------------------------------------
c-----------------------------------------------------------------
g-1---1---0---0---1---1---0---0---1---1---0---0---1---1---0---0---
c-1---1---0---0---1---1---0---0---1---1---0---0---1---1---0---0---

Fig. 2a (gtr. 2)

d-----------------------------------------------------------------
a-----------------------------------------------------------------
f-----------------------------------------------------------------
c-8---8-8-7---7-7-8---8-8-7---7-7-8---8-8-7---7-7-8---8-8-7---7-7-
g-6---6-6-5---5-5-6---6-6-5---5-5-6---6-6-5---5-5-6---6-6-5---5-5-
c-----------------------------------------------------------------

Fig. 1

Verse 2:

Riff A & Riff B x2

after chorus:

d-----------------------------------------------------------------
a-----------------------------------------------------------------
f-----------------------------------------------------------------
c-----------------------------------------------------------------
g-0-------0-------0-------0-------0-------0-------0---------------
c-0-------0-------0-------0-------0-------0-------0---------------

Interlude:

d-----------------------------------------------------------------
a-----------------------------------------------------------------
f-----------------------------------------------------------------
c-----------------------------------------------------------------
g-0----------------------7----------6-----------------7-----------
c-0----------------------7----------6-----------------7-----------

d-----------------------------------------------------------------
a-----------------------------------------------------------------
f-----------------------------------------------------------------
c-----------------------------------------------------------------
g-9------10--------------3----------2-------2----2--2--2--2-2-2-2-
c-9------10--------------3----------2-------2----2--2--2--2-2-2-2-

Outro:

gtr. 1

d-----------------------------------------------------------------
a-----------------------------------------------------------------
f-----------------------------------------------------------------
c---------------------------------8---8---7---7---8---8---7-------
g-0---0---0---0---0---0---0---0---6---6---5---5---6---6---5-------
c-0---0---0---0---0---0---0---0-----------------------------------

gtr. 2

d-----------------------------------------------------------------
a-----------------------------------------------------------------
f-----------------------------------------------------------------
c-----------------------------------------------------------------
g-0---0---0---0---0---0---0---0---1---1---0---0---1---1---0-------
c-0---0---0---0---0---0---0---0---1---1---0---0---1---1---0-------

thatís all

*from the "steal this album" tab book*

trevor jones
timmy91199@yahoo.ca
Comments