System Of A Down - Boom Chords & Tabs

 

Boom Chords & Tabs

System Of A Down Chords & Tabs

Version: 3 Type: Bass Tab 0 ratings
1 star 2 stars 3 stars 4 stars 5 stars
comments

Boom Bass Tab

   
Artist: System of a Down
Song: Boom
Album: Steal This Album
Tuning: C,G,C,F
Tabbed by joshstevo@hotmail.com


Intro
F|-----------------------------------------------------------------------|
C|-----------------------------------------------------------------------|
G|-----------------------------------------------------------------------|
C|-22-33-22-33-22-33-22-33-22-33-22-33-22-33-22-3------------------------|


Verse 1
F|-----------------------------------------------------------------------|
C|-----------------------------------------------------------------------|
G|-----------------------------------------------------------------------|
C|-00-00-00-00-00-00-00-00-11-11-11-11-11-11-11-11-----------------------|

[ Tab from: http://www.guitartabs.cc/tabs/s/system_of_a_down/boom_btab_ver_3.html ]
Verse 2
F|-----------------------------------------------------------------------|
C|-----------------------------------------------------------------------|
G|-4-4-4-4-5-5-5-5-----------------4-4-4-4-5-5-5-5-----------------------|
C|-----------------0-0-0-0-1-1-1-1-----------------0-0-0-0-1-1-1-1-------|


Chorus
F|-----------------------------------------------------------------------|
C|-----------------------------------------------------------------------|
G|-----------------------------------------------------------------------|
C|-0----0----0----0------------------------------------------------------|

Intro x1
Chorus x1
Verse x4
Chorus x 1
Intro x 1


Interlude
F|-----------------------------------------------------------------------|
C|-----------------------------------------------------------------------|
G|-----------------------------------------------------------------------|
C|--0-0-0-0-1-1-1-1-3-3-3-3-1-1-1-1--------------------------------------|


Chorus x1
Intro x1
Chorus x1
Intro x1
Comments