System Of A Down - Attack Chords & Tabs

 

Attack Chords & Tabs

System Of A Down Chords & Tabs

Version: 1 Type: Tab 0 ratings
1 star 2 stars 3 stars 4 stars 5 stars
comments

Attack Tab

   
song:Attack
artist: system of a down	
album:hypnotize
dropped d (i think)
e|--------------------------------------------------------------|
b|--------------------------------------------------------------|
g|--------------------------------------------------------------|4 times
d|-8/7-8/7-8/7-8-7-7--------------------------------------------|
a|-6/5-6/5-6/5-6-5-5--------------------------------------------|
d|--------------------000000------------------------------------|
then do it again with all drums and guitar


then verse

e|--------------------------------------------------------------|
b|--------------------------------------------------------------|
g|-15----14------------15---17---14-----------------------------|
d|----00----0000000000----0----0----00000000000-----------------|
a|--------------------------------------------------------------|
d|--------------------------------------------------------------|

e|--------------------------------------------------------------|
b|--------------------------------------------------------------|
g|-15----14---------19---17--14---------------------------------|
d|----00----0000000----0---0----0000000-------------------------|
a|--------------------------------------------------------------|
d|--------------------------------------------------------------|

e|---------------------------------------------------------------------|
b|---------------------------------------------------------------------|
g|-14-----15----17--------19----20---15---------17---19---15-14/15\14--|
d|----000---000---0000000----000--000---0000000---000--000-------------|
a|---------------------------------------------------------------------|
d|---------------------------------------------------------------------|


e|--------------------------------------------------------------|
b|--------------------------------------------------------------|
g|--------------------------------------------------------------|
d|--------------------------------------------------------------|
a|-5-5-3-5-7-7-5-7-8-8-7-8--------------------------------------|
d|-5-5-3-5-7-7-5-7-8-8-7-8-10-10-10-10--------------------------|
[ Tab from: http://www.guitartabs.cc/tabs/s/system_of_a_down/attack_tab.html ]
e|---------------------------------------------------------------------|
b|---------------------------------------------------------------------|
g|---------------------------------------------------------------------|
d|---------------------------------------------------------------------|
a|---------------------------------------------------------------------|
d|12-12-12-12-10-10-10-10-8-8-8-8-7-7-7-7-10-10-10-10-8-8-8-8-7-7-7-7-5|

repeat twice


e|----------------------------------------------------------------|
b|----------------------------------------------------------------|
g|----------------------------------------------------------------|
d|------8-7-------------------------------------------------------|
a|------6-5-------------------------------------------------------|
d|-5-7-------00000000000000---------------------------------------|
repeat 3 times
then...
e|--------------------------------------------------------------|
b|--------------------------------------------------------------|
g|--------------------------------------------------------------|
d|-----8-7-8-10--10/12-10-10---------8--------------------------|
a|-----6-5-6-8----8/10--8--8---------6--------------------------|
d|-5-7-------------------------5--7-----------------------------|




and thats pretty much most of the song riffs

o ya
e|--------------------------------------------------------------|
b|--------------------------------------------------------------|
g|--------------------------------------------------------------|
d|-----8--7-7-----7--------------8-7-7----7---------------------|
a|-----6--5-5-----5--------------6-5-5----5---------------------|
d|-5-7--------000---0000000--5-7-------000--0000000-------------|

e|----------------------------------------------------------------|
b|----------------------------------------------------------------|
g|----------------------------------------------------------------|
d|-------8-7-8-101010101010101010---------------------------------|
a|-------6-5-6--8-8-8-8-8-8-8-8-8---------------------------------|
d|---5-7----------------------------------------------------------|


e|--------------------------------------------------------------|
b|--------------------------------------------------------------|
g|--------------------------------------------------------------|
d|------------------------------------------8-7-----------------|
a|-5-5-5-5-5-5-5-4--5---6-5--4-5-6-5--------6-5-----------------|
d|-5-5-5-5-5-5-5-4--5---6-5--4-5-6-5---5-7------000-------------|





                           attack
	                  system of a down
	                  hypnotize


i think that that is it... if not... feel free too submit a different version
Comments