System Of A Down - Aerials Chords & Tabs

 

Aerials Chords & Tabs

System Of A Down Chords & Tabs

Version: 5 Type: Tab 0 ratings
1 star 2 stars 3 stars 4 stars 5 stars
comments

Aerials Tab

   
Artist: System of a Down
Song: Aerials
Album: Toxicity
Transcribed By: Josh Minnish
Email Addy: ibanezjoshm@hotmail.com

Tuning: CGCFAD (Drop C)

This song is AWESOME!!! I love it!!! I seen some tabs but were missing just a few
things!! This is 100% correct!! As Always..Have Fun!!!
Intro

D|---------------------------------------------------------------------------|
A|---------------------------------------------------------------------------|
F|---------------------------------------------------------------------------|
C|------0------0------0------0------0---------0------0------0------0------0--|
G|----0------0------0------0------0---------0------0------0------0------0----|
C|--3------2------0------0------0------0--5------3------2------2------2------|

D|------------------------------------------------------------------------------|
A|------------------------------------------------------------------------------|
F|------------------------------------------------------------------------------|
C|---------0------0------0------0----0----0------0------0------0------0------0--|
G|-------0------0------0------0----------------0------0------0------0------0----|
C|--2--3------5------7------8------7----5----3------2------0------0------0------|

D|-----------------------------------------------------------------------------------|
A|-----------------------------------------------------------------------------------|
F|-----------------------------------------------------------------------------------|
C|----------0-------0------0------0------0-----------0-------0------0------0------0--|
G|--------0-------0------0------0------0-----------0-------0------0------0------0----|
C|--0--12------10------7------7------7------7-/-14------10------7------7------7------|

D|---------------------------------------------------------------------------------------|
A|---------------------------------------------------------------------------------------|
F|---------------------------------------------------------------------------------------|
C|----------0-------0-------0-------0----0-------0---------0-------0-------0-----0----0--|
G|--------0-------0-------0-------0---------------------0-------0-------0-----0-----0----|
C|--7--12------14------15------17------15----14------12------10-----12----12----12-------|


Verse
[ Tab from: http://www.guitartabs.cc/tabs/s/system_of_a_down/aerials_tab_ver_5.html ]
D|--------------------------------------------------------------|
A|--------------------------------------------------------------|
F|---------------------12-----------10-----------9-----------7--|
C|--88888888--0-0-0-0------0-0-0-0------0-0-0-0-----0-0-0-0-----|
G|--88888888--0-0-0-0--10--0-0-0-0--8---0-0-0-0--7--0-0-0-0--5--|
C|--88888888--0-0-0-0------0-0-0-0------0-0-0-0-----0-0-0-0-----|
P.M.          - - - -      - - - -      - - - -     - - - -


Bridge

D|---------------------------------------------------------------------------|
A|---------------------------------------------------------------------------|
F|---------------------------------------------------------------------------|
C|------0------0------0------0------0---------0------0------0------0------0--|
G|----0------0------0------0------0---------0------0------0------0------0----|
C|--3------2------0------0------0------0--5------3------2------2------2------|

D|------------------------------------------------------------------------------|
A|------------------------------------------------------------------------------|
F|------------------------------------------------------------------------------|
C|---------0------0------0------0----0----0------0------0------0------0------0--|
G|-------0------0------0------0----------------0------0------0------0------0----|
C|--2--3------5------7------8------7----5----3------2------0------0------0------|


Interlude

D|-----------------------------------|
A|-----------------------------------|
F|-----------------------------------|
C|--7-8-7-8-7-8-7-8-7-8-7-8-7-8-7-8--|
G|--7-8-7-8-7-8-7-8-7-8-7-8-7-8-7-8--|
C|--7-8-7-8-7-8-7-8-7-8-7-8-7-8-7-8--|
P.M.                - - - - - - - -


Breakdown

D|----------------------------------------------------|
A|----------------------------------------------------|
F|----------------------------------------------------|
C|--3--2--0--5--3--2--3--5--7--8--7--5--3--2--0--12/--|
G|--3--2--0--5--3--2--3--5--7--8--7--5--3--2--0--12/--|
C|--3--2--0--5--3--2--3--5--7--8--7--5--3--2--0--12/--|

{Lyrics}


Life is a waterfall,
We're one in the river,
And one again after the fall.

Swimming through the void
We hear the word,
We lost ourselves,
But we find it all?

Cause we are the ones that want to play,
Always want to go,
But you never want to stay,

And we are the ones that want to chose,
Always want to play,
But you never want to lose.

Aerials, in the sky,
When you lose small mind,
You free your life.

Life is a waterfall,
We drink from the river,
Then we turn around and put up our walls.

Swimming through the void
We hear the word,
We lost ourselves,
But we find it all?

Cause we are the ones that want to play,
Always want to go,
But you never want to stay,

And we are the ones that want to chose,
Always want to play,
But you never want to lose.

Aerials, in the sky,
When you lose small mind,
You free your life.
Aerials, so up high,
When you free your eyes,
Eternal prize.
Aerials, in the sky,
When you lose small mind,
You free your life.
Aerials, so up high,
When you free your eyes,
Eternal prize. 
Comments