System Of A Down - Aerials Chords & Tabs

 

Aerials Chords & Tabs

System Of A Down Chords & Tabs

Version: 10 Type: Tab 0 ratings
1 star 2 stars 3 stars 4 stars 5 stars
comments

Aerials Tab

   
Artist: System of a Down
Song: Ariels
Tabbed at 7:00 Pm Friday December 20,2002

this is 100% right and im positive. but u drop the low string
(and only the low one) to D

e------------------------------------------------------------------------------
b------------------------------------------------------------------------------
g------------------------------------------------------------------------------
d---0--0--0--0--0--0------0--0--0--0--0--0------0--0--0--0--0--0--0--0--0--0--0
a--0--0--0--0--0--0------0--0--0--0--0--0------0--0--0--0--0--0--0--0--0--0--0-
d-3--2--0--0--0--0------5--3--2--2--2--2------3--5--7--8--7--5--3--2--0--0--0--
                        (X2)

e------------------------------------------------------------------------------
b------------------------------------------------------------------------------
g------------------------------------------------------------------------------
d---0--0--0--0--0--0------0--0--0--0--0--0------0--0--0--0--0--0--0--0--0--0--0
a--0--0--0--0--0--0------0--0--0--0--0--0------0--0--0--0--0--0--0--0--0--0--0-
d12-10--7--7--7--7-----14-10--7--7--7--7-----12-14-15-17-15-14-12-10-12-12-12--

e-----------------  e----------------------------------------------------------
b-----------------  b----------------------------------------------------------
g-----------------  g---------12---------10---------9---------7----------------
d-7-7-7-7-7-7-7-7-  d-0-0-0-0-XX-0-0-0-0-XX-0-0-0-0-X-0-0-0-0-X----------------
a-7-7-7-7-7-7-7-7-  a-0-0-0-0-10-0-0-0-0--8-0-0-0-0-7-0-0-0-0-5----------------
d-7-7-7-7-7-7-7-7-  d-0-0-0-0----0-0-0-0----0-0-0-0---0-0-0-0------------------
                     PM______  PM_______  PM_______ PM_______

e-----------------  e----------------------------------------------------------
b-----------------  b----------------------------------------------------------
g-----------------  g---------12---------10---------9---------7----------------
d-7-7-7-7-7-7-7-7-  d-0-0-0-0-XX-0-0-0-0-XX-0-0-0-0-X-0-0-0-0-X----------------
a-7-7-7-7-7-7-7-7-  a-0-0-0-0-10-0-0-0-0--8-0-0-0-0-7-0-0-0-0-5----------------
d-7-7-7-7-7-7-7-7-  d-0-0-0-0----0-0-0-0----0-0-0-0---0-0-0-0------------------
                     PM______  PM_______  PM_______ PM_______

e-----------------  e----------------------------------------------------------
b-----------------  b----------------------------------------------------------
g-----------------  g---------12---------10---------9---------7----------------
d-7-7-7-7-7-7-7-7-  d-0-0-0-0-XX-0-0-0-0-XX-0-0-0-0-X-0-0-0-0-X----------------
a-7-7-7-7-7-7-7-7-  a-0-0-0-0-10-0-0-0-0--8-0-0-0-0-7-0-0-0-0-5----------------
d-7-7-7-7-7-7-7-7-  d-0-0-0-0----0-0-0-0----0-0-0-0---0-0-0-0------------------
                     PM______  PM_______  PM_______ PM_______


e-----------------  
b-----------------  
g----------------- 
d-7-7-7-7-7-7-7-7-  
a-7-7-7-7-7-7-7-7-  
d-7-7-7-7-7-7-7-7- 


e------------------------------------------------------------------------------
b------------------------------------------------------------------------------
g------------------------------------------------------------------------------
d---0--0--0--0--0--0------0--0--0--0--0--0------0--0--0--0--0--0--0--0--0--0--0
a--0--0--0--0--0--0------0--0--0--0--0--0------0--0--0--0--0--0--0--0--0--0--0-
d-3--2--0--0--0--0------5--3--2--2--2--2------3--5--7--8--7--5--3--2--0--0--0--
                        (X2)
[ Tab from: http://www.guitartabs.cc/tabs/s/system_of_a_down/aerials_tab_ver_10.html ]
e------------------------------------------------------------------------------
b------------------------------------------------------------------------------
g------------------------------------------------------------------------------
d---0--0--0--0--0--0------0--0--0--0--0--0------0--0--0--0--0--0--0--0--0--0--0
a--0--0--0--0--0--0------0--0--0--0--0--0------0--0--0--0--0--0--0--0--0--0--0-
d12-10--7--7--7--7-----14-10--7--7--7--7-----12-14-15-17-15-14-12-10-12-12-12--


e-----------------  e----------------------------------------------------------
b-----------------  b----------------------------------------------------------
g-----------------  g---------12---------10---------9---------7----------------
d-7-7-7-7-7-7-7-7-  d-0-0-0-0-XX-0-0-0-0-XX-0-0-0-0-X-0-0-0-0-X----------------
a-7-7-7-7-7-7-7-7-  a-0-0-0-0-10-0-0-0-0--8-0-0-0-0-7-0-0-0-0-5----------------
d-7-7-7-7-7-7-7-7-  d-0-0-0-0----0-0-0-0----0-0-0-0---0-0-0-0------------------
                     PM______  PM_______  PM_______ PM_______

e-----------------  e----------------------------------------------------------
b-----------------  b----------------------------------------------------------
g-----------------  g---------12---------10---------9---------7----------------
d-7-7-7-7-7-7-7-7-  d-0-0-0-0-XX-0-0-0-0-XX-0-0-0-0-X-0-0-0-0-X----------------
a-7-7-7-7-7-7-7-7-  a-0-0-0-0-10-0-0-0-0--8-0-0-0-0-7-0-0-0-0-5----------------
d-7-7-7-7-7-7-7-7-  d-0-0-0-0----0-0-0-0----0-0-0-0---0-0-0-0------------------
                     PM______  PM_______  PM_______ PM_______

e-----------------  e----------------------------------------------------------
b-----------------  b----------------------------------------------------------
g-----------------  g---------12---------10---------9---------7----------------
d-7-7-7-7-7-7-7-7-  d-0-0-0-0-XX-0-0-0-0-XX-0-0-0-0-X-0-0-0-0-X----------------
a-7-7-7-7-7-7-7-7-  a-0-0-0-0-10-0-0-0-0--8-0-0-0-0-7-0-0-0-0-5----------------
d-7-7-7-7-7-7-7-7-  d-0-0-0-0----0-0-0-0----0-0-0-0---0-0-0-0------------------
                     PM______  PM_______  PM_______ PM_______


e-----------------   e--------------------------
b-----------------   b--------------------------
g-----------------   g--------------------------
d-7-7-7-7-7-7-7-7-   d-8-8-8-8-8-8-8-8----------
a-7-7-7-7-7-7-7-7-   a-8-8-8-8-8-8-8-8----------
d-7-7-7-7-7-7-7-7-   d-8-8-8-8-8-8-8-8----------


e------------------------------------------------------------------------------
b------------------------------------------------------------------------------
g------------------------------------------------------------------------------
d-3--2--0--0--0--0------5--3--2--2--2--2------3--5--7--8--7--5--3--2--0--0--0--
a-3--2--0--0--0--0------5--3--2--2--2--2------3--5--7--8--7--5--3--2--0--0--0--
d-3--2--0--0--0--0------5--3--2--2--2--2------3--5--7--8--7--5--3--2--0--0--0--


e------------------------------------------------------------------------------
b------------------------------------------------------------------------------
g------------------------------------------------------------------------------
d---0--0--0--0--0--0------0--0--0--0--0--0------0--0--0--0--0--0--0--0--0--0--0
a--0--0--0--0--0--0------0--0--0--0--0--0------0--0--0--0--0--0--0--0--0--0--0-
d-3--2--0--0--0--0------5--3--2--2--2--2------3--5--7--8--7--5--3--2--0--0--0--
                        (X2)

e------------------------------------------------------------------------------
b------------------------------------------------------------------------------
g------------------------------------------------------------------------------
d---0--0--0--0--0--0------0--0--0--0--0--0------0--0--0--0--0--0--0--0--0--0--0
a--0--0--0--0--0--0------0--0--0--0--0--0------0--0--0--0--0--0--0--0--0--0--0-
d12-10--7--7--7--7-----14-10--7--7--7--7-----12-14-15-17-15-14-12-10-12-12-12--

Finished 7:38 Pm This is it.. its kinda long but its right
if you don't think so (which u should) email me at catmilker@hotmail.com
Comments