System Of A Down - Aerials Chords & Tabs

 

Aerials Chords & Tabs

System Of A Down Chords & Tabs

Version: 1 Type: Tab 3 ratings
1 star 2 stars 3 stars 4 stars 5 stars
comments

Aerials Tab

   
I GOT TIRED OF ALL U PPL TRYING TO TABB AN AWESOME SONG AND FUCKING IT UP
SO HERE ARE THE TABS TO THIS AWESOME SONG AND THEY ARE 110% EXACT, SO HAVE
FUN PLAYING IT AND IF U GOT ANY QUESTIONS JUST EMAIL ME AT frco_dude@yahoo.com

                                 ((AbNoRmAL))

Aerials
Words and music by Daron Malakian and Serj Tankian

Gtrs 1,2 & 3: Drop D tunning, down 1 step
(low to high) C-G-C-F-A-D

Gtr 4: DADGAD tunning down 1 step
(low to high) C-G-C-F-G-C


Intro 
     Free time
* Gtr 1

3g|--------7--------------------------------|-----------------------------------------|--------5-------------------------------|-----------------------------------------|
4d|--------x--------------------------------|---8-------------------------------------|--------x-------------------------------|----7------------------------------------|
5a|--------5--------------------------------|---x-------------------------------------|--------3-------------------------------|----x------------------------------------|
6e|-----------------------------------------|---8-------------------------------------|----------------------------------------|----7------------------------------------|

* strings arr. for gtr. (1st notes begin over end of previous track)

Gtr 2
(elec) Riff A
   let ring------------------------------------------------------------------------------------------------------------------------------------------------------------    
										Gtr1 Riff beggins here
											     V
4d|-------------0--------------0---------|-0---------------0--------------0-----|---------------0--------------0------------|-0---------------0---------------0-----|
5a|--------0-------------0------------0--|-----------0--------------0-----------|---------0--------------0---------------0--|-----------0----------------0----------|
6e|--3-------------2------------0--------|----0---------------0---------------0-|--5--------------3---------------2---------|-----2---------------2---------------2-|

      let ring-------------------------------------------------------------------------------------------------------------------------------------------------------------------------

4d|--------------0---------------0-------------|-0----------------0---------0---------------|---------------0---------------0------------|--0---------------0---------------0-----|
5a|--------0---------------0---------------0---|------------0---------------------------0---|---------0---------------0---------------0--|------------0---------------0-----------|
6e|--3--------------5---------------7----------|-----8----------------7---------5-----------|--3---------------2---------------0---------|------0---------------0---------------0-|


4d|----------------0----------------0-------------|--0-----------------0---------------0-------|----------------0---------------0--------------|-0--------------0---------------0-----|
5a|----------0----------------0----------------0--|--------------0---------------0-------------|----------0---------------0---------------0----|----------0---------------0-----------|
6e|--12---------------10---------------7----------|------7----------------7----------------7/--|-/14---------------10---------------7----------|---7---------------7---------------7/-|


4d|------------------0----------------0-------------|---0----------------0-----------0---------------|-----------------------------------|--12-----12---12---12--12------|
5a|-----------0-----------------0-----------------0-|--------------0-----------------------------0---|-------------------0----------0----|--0------0----0----0----0------|
6e|--/12----------------14---------------15---------|-------17---------------15---------14-----------|--12---12\10--------12-------------|--12-----12---12---12---0------|


Gtr 1 
   Riff                      					                  w/bar--------------------------------------------------------------------------
                                                                                            ^^^^^^^^^^^^^^^^^^^^^^^^^^^^^^^^^^^^^^^^^^^^^^^^^^^^^^ 
1e|------------------------------------------|-----------------------------------------|--10--------------------------------------|-----------------------------------------|
2b|-----------------------------8------------|-----------------------------------------|---x--------------------------------------|-----------------------------------------|
3g|-----------------------------x------------|-----------------------------------------|---7--------------------------------------|-----------------------------------------|
4d|-----------------------------5------------|-----------------------------------------|------------------------------------------|-----------------------------------------|


      w/bar ----------------------------------------------------------------------------------------------------------------------------------------------------------
        ^^^^^^^^^^^^^^^^^^^^^^^^^^^^^^^^^^^^^^^^^^^^^^^^^^^                                ^^^^^^^^^^^^^^^^^^^^^^^^^^^^^^^^^^^^^^^^^^^^^^^^^^^^
1e|----8-------------------------------------|-----------------------------------------|----------------------------------------|-----------------------------------------|
2b|----x-------------------------------------|-----------------------------------------|---6------------------------------------|-----------------------------------------|
3g|----5-------------------------------------|-----------------------------------------|---x------------------------------------|-----------------------------------------|
4d|------------------------------------------|-----------------------------------------|---3------------------------------------|-----------------------------------------|

      w/bar---------------------------------------------------------------------------
      ^^^^^^^^^^^^^^^^^^^^^^^^^^^^^^^^^^^^^^^^^^^^^^^^^^^^^ 
1e|------------------------------------------|-----------------------------------------|
2b|---8--------------------------------------|-----------------------------------------|
3g|---x--------------------------------------|-----------------------------------------|
4d|---5--------------------------------------|-----------------------------------------|


 §  Verse

Half-time feel 
Gtrs 1 & 2 tacet 
2nd time, Gtr 4 tacet

4d|------8------8----8-----8--|---8--8------8---8---8---8-|--8-------------8---------8----8-|--8----8---------8---8---8---8-|
5a|------8------8----8-----8--|---8--8------8---8---8---8-|--8-------------8---------8----8-|--8----8---------8---8---8---8-|
6e|------8------8----8-----8--|---8--8------8---8---8---8-|--8-------------8---------8----8-|--8----8---------8---8---8---8-|

    p.m.................        p.m.............             p.m............               p.m............
[ Tab from: http://www.guitartabs.cc/tabs/s/system_of_a_down/aerials_tab.html ]
3g|-----------------12----------|----------------10----------|----------------9-----------|-----------------7---------|
4d|------------------x----------|-----------------x----------|----------------x-----------|-----------------x---------|
5a|--0--0--0--0---10------------|--0--0--0--0-----8----------|--0--0--0--0----7-----------|--0--0--0--0-----5---------|
6e|--0--0--0--0-----------------|--0--0--0--0----------------|--0--0--0--0----------------|--0--0--0--0---------------|


Interlude 
Gtr 2: w/Riff A
Gtr 4: Riff B


      let rin through out    
	
1e|-------------0--------------0---------|-0---------------0--------------0-----|---------------0--------------0------------|-0---------------0---------------0-----|
2b|--------0-------------0------------0--|-----------0--------------0-----------|---------0--------------0---------------0--|-----------0----------------0----------|
3g|--------------------------------------|--------------------------------------|-------------------------------------------|---------------------------------------|
4d|--3-------------2------------0--------|----0---------------0---------------0-|--5--------------3---------------2---------|-----2---------------2---------------2-|



1e|--------------0---------------0-------------|-0----------------0---------0----------0----|---------------0---------------0------------|--0---------------0---------------0-----|
2b|--------0---------------0---------------0---|------------0-------------------------------|---------0---------------0---------------0--|------------0---------------0-----------|
3g|--------------------------------------------|--------------------------------------------|--------------------------------------------|----------------------------------------|
4d|--3--------------5---------------7----------|-----8----------------7---------5-----------|--3---------------2---------------0---------|------0---------------0---------------0-|


Chorus
Gtrs. 2&4: w/Riffs A & B (1st 4 means)



     " When        you___           lose_______ small___     mind,     you              free______   your______  life._______"
Gtr. 4

1e|--------------0---------------0-------------|-0----------------0---------0----------0----|---------------0---------------0------------|--0---------------0--------------------|
2b|--------0---------------0---------------0---|------------0-------------------------------|---------0---------------0---------------0--|------------0--------------------------|
3g|--------------------------------------------|--------------------------------------------|--------------------------------------------|---------------------------------------|
4d|--3--------------5---------------7----------|-----8----------------7---------5-----------|--3---------------2---------------0---------|------0--------------------------------|

Gtr. 2

3g|--------------------------------------------|--------------------------------------------|--------------------------------------------|----------------0--0---------------|
4d|--------------0---------------0-------------|-0----------------0---------0---------------|---------------0---------------0------------|--0-------------0--0---------------|
5a|--------0---------------0---------------0---|------------0---------------------------0---|---------0---------------0---------------0--|-------------------------0--0--0---|
6e|--3--------------5---------------7----------|-----8----------------7---------5-----------|--3---------------2---------------0---------|-------------------------0--0--0---|



Ø Coda    

        nev - er  wan - na   lose________________________________ 		Oh!___________________________________
			Gtr. 3					                           p.m.........................   p.m............................

3g|------------------------------------------|-----------------------------|-----------------------------|-----------------------------|-----------------------------|
4d|------------------------------------------|-----7-----7-----7-----7-----|-----7-----7-----7-----7-----|-----7-----7-----7-----7-----|-----7-----7-----7-----7-----|
5a|------------------------------------------|-----7-----7-----7-----7-----|-----7-----7-----7-----7-----|-----7-----7-----7-----7-----|-----7-----7-----7-----7-----|
6e|------------------------------------------|-----7-----7-----7-----7-----|-----7-----7-----7-----7-----|-----7-----7-----7-----7-----|-----7-----7-----7-----7-----|


     Rhy. Fig2
  let ring----------------------------|
3g|-----------------------------------|-----------------------------|----------------------------------|----------------------------------|----------------------------------|
4d|---3----------2----------0---------|-----------------------------|---5---------3---------2----------|---------------2-------2----2-----|---3----------5---------7---------|
5a|---3----------2----------0---------|-----------------------------|---5---------3---------2----------|---------------2-------2----2-----|---3----------5---------7---------|
6e|---3----------2----------0---------|------------0---0---0---0----|---5---------3---------2----------|---------------2-------2----2-----|---3----------5---------7---------|

					                                              End Rhy. Fig 2
3g|-------------------------------|----------------------------------|-------------------------|
4d|-----8---------7---------5-----|---3--------2---------0-----------|-------------------------|
5a|-----8---------7---------5-----|---3--------2---------0-----------|-------------------------|
6e|-----8---------7---------5-----|---3--------2---------0-----------|------------------12\----|


Chorus 

Gtr 3: w/ Rhy Fig 2 (2 times)

Outro

Gtrs 2 & 4: w/ Riffs A & B (1 3/4 times) 
    ________________________________________  __________________________________________________________________________
    | 1			                   |  | 2				                                        |
			        Gtr 4 
1e|-----------------------------------------||-------------0--------------0--------|------------------------------------|
2b|-----------------------------------------||--------0-------------0--------------|------------------------------------|
3g|-----------------------------------------||-------------------------------------|------------------------------------|
4d|-----------------------------------------||--3-------------2------------0-------|------------------------------------|

			       Gtr 2
			       let ring---------------------------------------------------------------
1e|-----------------------------------------||-------------0--------------0--------|------------------------------------|
2b|-----------------------------------------||--------0-------------0--------------|------------------------------------|
3g|-----------------------------------------||--3-------------2------------0-------|------------------------------------|



Pointers : D.S al Coda  * Go back to the sign ( § ), than play until
                                           the measure marked "To Coda" then skip
                                           to the section labelled "Coda".
Comments