System Of A Down - Aerials Chords & Tabs

 

Aerials Chords & Tabs

System Of A Down Chords & Tabs

Version: 4 Type: Bass Tab 0 ratings
1 star 2 stars 3 stars 4 stars 5 stars
comments

Aerials Bass Tab

INTRO
G--------------------------------|
D--------3--------3-5-6-5-3------|
A6-5-3333-6-5555-6---------6-5-3-|
D--------------------------------|

G5-3-----7-3-----5-7-8-10-8-7-5-3-5-|
D----5555----5555-------------------|
A-----------------------------------|
D-----------------------------------|

[ Tab from: http://www.guitartabs.cc/tabs/s/system_of_a_down/aerials_btab_ver_4.html ]
VERSE (4X)
G-----------------------------|
D-----------------------------|
A------------8----6----5----3-|
D6---6---6666-6666-6666-6666--|


CHORUS (2X)
G--------------------------------|
D--------3--------3-5-6-5-3------|
A6-5-3333-6-5555-6---------6-5-3-|
D--------------------------------|

BRIDGE (1X)
G--------------------------------|
D--------3--------3-5-6-5-3------|
A6-5-3----6-5----6---------6-5-3-|
D--------------------------------|


SONG ORDER


INTRO (1X)
VERSE (1X)
CHORUS (1X)
VERSE (1X)
BRIDGE (1X)
CHORUS (4X)
Comments