System Of A Down - Aerials Chords & Tabs

 

Aerials Chords & Tabs

System Of A Down Chords & Tabs

Version: 2 Type: Bass Tab 0 ratings
1 star 2 stars 3 stars 4 stars 5 stars
comments

Aerials Bass Tab

Song: Aerials
Band: System of a down
Album: Toxicity
Tabbed: Daniel (double_dcup_daniel@hotmail.com)
Comments:
easy song to play but sounds pretty good i think this tabs almost perfect. have fun!

Intro: Riff 1
G[--------------------------------------------------------]
D[--------------------------------------------------------]
A[-8-7-5-5-5-5--10-8-7-7-7-7-8-10-12-13-12-10-8-7-5-5-5-5-]
E[--------------------------------------------------------]

Riff 2
G[-------------------------------------------------------------]
D[-------------------------------------------------------------]
A[-7>12-10-7-7-7-7>14-10-7-7-7-7>12-14-15-17-15-17-15-14-15-12-]
E[-------------------------------------------------------------]
[ Tab from: http://www.guitartabs.cc/tabs/s/system_of_a_down/aerials_btab_ver_2.html ]
Verse:
G[------------------------------------------------]
D[------------------------------------------------]
A[------------------------------------------------]
E[-8-8-8-8-8-8-8-8-8-8-8-8etc-(bend last note up)-]
   "life is a waterfall"

G[----------------------------------------------]
D[----------------------------------------------]
A[---------10^---------8^---------7^---------5^-]
E[-0-0-0-0-----0-0-0-0----0-0-0-0----0-0-0-0----]

Chorus:
G[--------------------------------------------------------]
D[--------------------------------------------------------]
A[-8-7-5-5-5-5--10-8-7-7-7-7-8-10-12-13-12-10-8-7-5-5-5-5-]
E[--------------------------------------------------------]
  "Aerials, in the sky"

After last Verse:
G[-----------------------------------]
D[-----------------------------------]
A[-----------------------------------]
E[-7-7-7-7-7-7-7-7--5-5-5-5-5-5-5-5--]

Heavy Bridge:
G[----------------------------------------]
D[----------------------------------------]
A[----------------------------------------]
E[-3-2-0--5-3-2--3-5-7-8-7-5-3-2-0--0-0-0-]

Send us an E-mail with corrections or suggestions
Thanx Daniel
Comments