System Of A Down - Add Chords & Tabs

 

Add Chords & Tabs

System Of A Down Chords & Tabs

Version: 3 Type: Bass Tab 0 ratings
1 star 2 stars 3 stars 4 stars 5 stars
comments

Add Bass Tab

Tabbed By : Mike Antoch
e-mail: Sodaman34@aol.com, u can also IM me there

Tuning: drop c cgcf

easy song

(guitar intro)

this is the first riff (x whatever)
G|--------------------------------------------------------------------------|
D|--------------------------------------------------------------------------|
A|5----5----5----5--3-5-6-5-------------------------------------------------|
E|-0000-0000-0000-00--------------------------------------------------------|

next riff and also chorus
G|--------------------------------------------------------------------------|
D|--------------------------------------------------------------------------|
A|--------------------------------4-4-444-----------------------------------|
E|1-1-111-7-7-777-0-0-000-6-6-666--------5-5-555----------------------------|
[ Tab from: http://www.guitartabs.cc/tabs/s/system_of_a_down/add_btab_ver_3.html ]
during the verses the guitar plays octaves, but this is what the bass plays constanly u 
out the timing:
G|--------------------------------------------------------------------------|
D|--------------------------------------------------------------------------|
A|--------------------------------------------------------------------------|
E|00000000000000000000000---------------------------------------------------|

pre chorus (x whatever) not sure if the bass plays that, but w/e
G|--------------------------------------------------------------------------|
D|--------------------------------------------------------------------------|
A|---12^--------------------------------------------------------------------|
E|000-----------------------------------------------------------------------|

then play the chorus( X whatever)
G|--------------------------------------------------------------------------|
D|--------------------------------------------------------------------------|
A|--------------------------------4-4-444-----------------------------------|
E|1-1-111-7-7-777-0-0-000-6-6-666--------5-5-555----------------------------|

verse again
chorus again

go back to the first riff
guitar plays octaves, but bass does not play
then play pre chorus

the bass just play opens in the outro, so i dont need to tab it, they dont play the bend 
the guitar is doing, you figure out the timing

excellent song, one of the best on steal this album, one of there best over all, just 
kick a**. have fun with this, its easy. peace out people
Comments