System Of A Down - 3 Chords & Tabs

 

3 Chords & Tabs

System Of A Down Chords & Tabs

Version: 1 Type: Tab 0 ratings
1 star 2 stars 3 stars 4 stars 5 stars
comments

3 Tab

   
-=36=-System of a Down
======
tabbed by Javier Rodríguez
(C-G-C-F-A-D)


A
1:----0-----0-----0-----0-|----0-----0-----0------|
2:-0-----3-----2-----4----|-0-----3-----2-----2/6-|
3:------------------------|-----------------------|
4:------------------------|-----------------------|
5:------------------------|-----------------------|
6:------------------------|-----------------------|


B
1:-------------------------|
2:-------------------------|
3:-------------------------|
4:-------------------------|
5:-6^5^0-6^5^0-6^5^0-6^5^0-|
6:-6^5^0-6^5^0-6^5^0-6^5^0-|

[ Tab from: http://www.guitartabs.cc/tabs/s/system_of_a_down/3_tab.html ]
C
1:-0-0--0-0--0-0--0-0-|-0-0--0-0--0-0--0-0-|-0-0--0-0--0-0--0-0-|-0-0--0-0--0-0--0---|
2:-0-0--3-3--2-2--4-4-|-0-0--3-3--2-2--6-6-|-0-0--3-3--2-2--4-4-|-0-0--3-3--2-2--2/6-|
3:--------------------|--------------------|--------------------|--------------------|
4:--------------------|--------------------|--------------------|--------------------|
5:--------------------|--------------------|--------------------|--------------------|
6:--------------------|--------------------|--------------------|--------------------|


D
1:-0-0--0-0--0-0--0-0-|
2:-0-0--3-3--2-2--4-4-|
3:--------------------|
4:--------------------|
5:--------------------|
6:--------------------|


E
1:-0-0--0-0--0-0--0---|
2:-0-0--3-3--2-2--2/6-|
3:--------------------|
4:--------------------|
5:--------------------|
6:--------------------|


ORDER:
=====

A
B 8x
C
B 8x
D
B 2x
E
B 2x
Comments