Syn - Down To Pieces Chords & Tabs

 

Down To Pieces Chords & Tabs

Syn Chords & Tabs

Version: 1 Type: Tab 0 ratings
1 star 2 stars 3 stars 4 stars 5 stars
comments

Down To Pieces Tab

   
-------------------------------------------------------------------------------
			     DOWN TO PIECES - SYN
-------------------------------------------------------------------------------
Tabbed by: The Unforgiven
Email: axmx13@msn.com

SYN is a band from Poza Rica, Veracruz, México.
Their official website is at www.rockpozarica.com

Tuning:
Half-step down (Db)

   Main Riff
e||--------------------------|--------------------------|
B||--------------------------|--------------------------|
G||--4--4--4--4--4--4--4--4--|--7--7--7--7--7--7--7--7--|
D||--4--4--4--4--4--4--4--4--|--7--7--7--7--7--7--7--7--|
A||--2--2--2--2--2--2--2--2--|--5--5--5--5--5--5--5--5--|
E||--------------------------|--------------------------|

e||--------------------------|----------------------|
B||--------------------------|----------------------|
G||--------------------------|----------------------|
D||--5--5--5--5--5--5--5--5--|----7----7----7----7--|
A||--5--5--5--5--5--5--5--5--|----7----7----7----7--|
E||--3--3--3--3--3--3--3--3--|----5----5----5----5--|
                                                
e||--------------------------|--------------------------|
B||--------------------------|--------------------------|
G||--4--4--4--4--4--4--4--4--|--7--7--7--7--7--7--7--7--|
D||--4--4--4--4--4--4--4--4--|--7--7--7--7--7--7--7--7--|
A||--2--2--2--2--2--2--2--2--|--5--5--5--5--5--5--5--5--|
E||--------------------------|--------------------------|
                                                      
e||--------------------------|--------------------------|
B||--------------------------|--------------------------|
G||--------------------------|--------------------------|
D||--5--5--5--5--5--5--5--5--|--------------------5--5--|
A||--5--5--5--5--5--5--5--5--|--5-----5-----5-----------|
E||--3--3--3--3--3--3--3--3--|-----5-----5-----5--------|
                                +  +  +  +  +  +  +  +

   Verse
e||--------------------------|--------------------------|
B||--------------------------|--------------------------|
G||--4--4--4--4--4--4--4--4--|--4--4--4--4--4--4--4--4--|
D||--4--4--4--4--4--4--4--4--|--4--4--4--4--4--4--4--4--|
A||--2--2--2--2--2--2--2--2--|--2--2--2--2--2--2--2--2--|
E||--------------------------|--------------------------|
                                                      
e||--------------------------|--------------------------|
B||--------------------------|--------------------------|
G||--------------------------|--------------------------|
D||--5--5--5--5--5--5--5--5--|--5--5--5--5--5--5--5--5--|
A||--5--5--5--5--5--5--5--5--|--5--5--5--5--5--5--5--5--|
E||--3--3--3--3--3--3--3--3--|--3--3--3--3--3--3--3--3--|
                                                      
e||--------------------------|--------------------------|
B||--------------------------|--------------------------|
G||--------------------------|--------------------------|
D||--7--7--7--7--7--7--7--7--|--7--7--7--7--7--7--7--7--|
A||--7--7--7--7--7--7--7--7--|--7--7--7--7--7--7--7--7--|
E||--5--5--5--5--5--5--5--5--|--5--5--5--5--5--5--5--5--|

e||--------------------------|--------------------------|
B||--------------------------|--------------------------|
G||--------------------------|--------------------------|
D||--7--7--7--7--7--7--7--7--|--7--7--7--7--7--7--7--7--|
A||--7--7--7--7--7--7--7--7--|--7--7--7--7--7--7--7--7--|
E||--5--5--5--5--5--5--5--5--|--5--5--5--5--5--5--5--5--|


   Chorus
e||--------------------------|--------------------------|
B||--------------------------|--------------------------|
G||--4--4--4--4--4--4--4--4--|--4--4--4--4--4--4--4--4--|
D||--4--4--4--4--4--4--4--4--|--4--4--4--4--4--4--4--4--|
A||--2--2--2--2--2--2--2--2--|--2--2--2--2--2--2--2--2--|
E||--------------------------|--------------------------|

e||--------------------------|--------------------------|
B||--------------------------|--------------------------|
G||--------------------------|--------------------------|
D||--5--5--5--5--5--5--5--5--|--5--5--5--5--5--5--5--5--|
A||--5--5--5--5--5--5--5--5--|--5--5--5--5--5--5--5--5--|
E||--3--3--3--3--3--3--3--3--|--3--3--3--3--3--3--3--3--|

e||--------------------------|--------------------------|
B||--------------------------|--------------------------|
G||--7--7--7--7--7--7--7--7--|--7--7--7--7--7--7--7--7--|
D||--7--7--7--7--7--7--7--7--|--7--7--7--7--7--7--7--7--|
A||--5--5--5--5--5--5--5--5--|--5--5--5--5--5--5--5--5--|
E||--------------------------|--------------------------|

e||--------------------------|------------------------|
B||--------------------------|------------------------|
G||--7--7--7/-6--6--6/-7--7--|--7/-6--6--6/-7/---6----|
D||--------------------------|------------------------|
A||--5--5--5/-4--4--4/-5--5--|--5/-4--4--4/-5/---4----|
E||--------------------------|------------------------|
[ Tab from: http://www.guitartabs.cc/tabs/s/syn/down_to_pieces_tab.html ]
   Bridge
e||-----|-----|-----|-----|
B||-----|-----|-----|-----|
G||--4--|-----|--7--|-----|
D||--2--|--5--|--5--|--7--|
A||--2--|--5--|--5--|--5--|
E||-----|--3--|-----|--5--|

   Bridge (2nd. Guitar)
e||---------------------|---------------------|---------------------|
B||---------------------|---------------------|---------------------|
G||----------------4----|-----------4---------|---------------------|
D||---------4-----------|----4-----------4----|----------------5----|
A||--2------------------|---------------------|---------5-----------|
E||---------------------|---------------------|--3------------------|

e||---------------------|---------------------|---------------------|
B||---------------------|---------------------|---------------------|
G||---------------------|----------------7----|-----------7---------|
D||-----------5---------|---------7-----------|----7-----------7----|
A||----5-----------5----|--5------------------|---------------------|
E||---------------------|---------------------|---------------------|

e||---------------------|---------------------|
B||---------------------|---------------------|
G||---------------------|---------------------|
D||--7------7------7----|----7------7----7----|
A||--7------7------7----|----7------7----7----|
E||--5------5------5----|----5------5----5----|

   "Hey, my life's gone now..."
e||--------------------------|------------------------|
B||--------------------------|------------------------|
G||--4--------4--------4-----|-----4--------4----4----|
D||--4--------4--------4-----|-----4--------4----4----|
A||--2--2--2--2--2--2--2--2--|--2--2--2--2--2----2----|
E||--------------------------|------------------------|
 pm     .  .     .  .     .     .     .  .

e||--------------------------|------------------------|
B||--------------------------|------------------------|
G||--------------------------|------------------------|
D||--5--------5--------5-----|-----5--------5----5----|
A||--5--------5--------5-----|-----5--------5----5----|
E||--3--3--3--3--3--3--3--3--|--3--3--3--3--3----3----|
 pm     .  .     .  .     .     .     .  .

e||--------------------------|------------------------|
B||--------------------------|------------------------|
G||--7--------7--------7-----|-----7--------7----7----|
D||--7--------7--------7-----|-----7--------7----7----|
A||--5--5--5--5--5--5--5--5--|--5--5--5--5--5----5----|
E||--------------------------|------------------------|
 pm     .  .     .  .     .     .     .  .

e||--------------------------|------------------------|
B||--------------------------|------------------------|
G||--------------------------|------------------------|
D||--7--------7--------7-----|-----7--------7----7----|
A||--7--------7--------7-----|-----7--------7----7----|
E||--5--5--5--5--5--5--5--5--|--5--5--5--5--5----5----|
 pm     .  .     .  .     .     .     .  .

e||--------------------------|------------------------|
B||--------------------------|------------------------|
G||--4--------4--------4-----|-----4--------4----4----|
D||--4--------4--------4-----|-----4--------4----4----|
A||--2--2--2--2--2--2--2--2--|--2--2--2--2--2----2----|
E||--------------------------|------------------------|
 pm     .  .     .  .     .     .     .  .

e||--------------------------|------------------------|
B||--------------------------|------------------------|
G||--------------------------|------------------------|
D||--5--------5--------5-----|-----5--------5----5----|
A||--5--------5--------5-----|-----5--------5----5----|
E||--3--3--3--3--3--3--3--3--|--3--3--3--3--3----3----|
 pm     .  .     .  .     .     .     .  .

e||--------------------------|------------------------|
B||--------------------------|------------------------|
G||--7--------7--------7-----|-----7--------7----7----|
D||--7--------7--------7-----|-----7--------7----7----|
A||--5--5--5--5--5--5--5--5--|--5--5--5--5--5----5----|
E||--------------------------|------------------------|
 pm     .  .     .  .     .     .     .  .

e||--------------------------|------------------------|
B||--------------------------|------------------------|
G||--7--7--7--6--6--6--7--7--|--7--6--6--6--7----6----|
D||--------------------------|------------------------|
A||--5--5--5--4--4--4--5--5--|--5--4--4--4--5----4----|
E||--------------------------|------------------------|

This song is very easy to play...
The progression goes like this:

-Main Riff (x1)
-Verse (x2)
-Chorus (x2)
-Main Riff (x1)
-Verse (x2)
-Chorus (x2)
-Bridge (x2) [Bridge Guitar 2 enters at second time]
-"Hey my life's gone now" (x1)
-Chorus (x4)

And that's the whole song...

Lyrics and everything else can be found at:
http://www.rockpozarica.com/

===============================================================================
| /  slide up
| \  slide down
| h  hammer-on
| p  pull-off
| ~  vibrato
| +  harmonic
| x  Mute note
===============================================================================
Comments