Symphony X - Through The Looking Glass Chords & Tabs

 

Through The Looking Glass Chords & Tabs

Symphony X Chords & Tabs

Version: 1 Type: Tab 0 ratings
1 star 2 stars 3 stars 4 stars 5 stars
comments

Through The Looking Glass Tab

   
			Through the looking Glass
 

Trabscribed and tabbed by Noghy
Noghy@caramail.com
htpp://members.xoom.com/kansasanthem

 PART I :
E------------------------------------------------|
B----------------------------/15--------14-------|
G-/9-----/9-7---12-12-11-9-------14--14----16----| x 2
D-----9------------------------------------------|
A------------------------------------------------|
E------------------------------------------------|

E----0--------------5-----------------10----------------|
B----0--------------5-----------------10------------0---|
G-------------------7-----------------7---9--9--13--9---| x 2
D-9-----4--4--9--7--7---12--12--11-9--7---7--7--11--9---|
A-7-----2--2--7--5------10--10--9--7----------------7---|
E-------------------------------------------------------|

E---------------------------------------------------------------------------------------|
B---------------------------------------------------------------------------------------|
G-13------------------------------11-13-------------------------11-13-------------------|
D-13---13-13---13---13-13---------------11-13-------------------------11-13-------------|
A-11---11-11---11---11-11---11-14-------------11-14-------11-14-------------11-14-------|
E---------------------------------------------------11-14-------------------------11-14-|

E--------------------------------------------------------------------------------|
B--------------------------------------------------------------------------------|
G-11-13-------------------------11-13--------------------------------------------|
D-------11-13-------------------------11-13--------------8--6---------------3----|
A-------------11-14-------11-14-------------11-14--------6--4--6--------------4--|
E-------------------11-14-------------------------11-14--------4---4-6-7-4-------|

E--------------------------------------------------------------------------------|
B--------------------------------------------------------------------------------|
G--------------------------------------------------------------------------------|
D-8--6--------------4ah--8--6-----4--6-8--6-----4--6-8--6-----4--6-8--6-----4--6-|
A-6--4--6----------------6--4--6--2--4-6--4--6--2--4-6--4--6--2--4-6--4--6--2--4-|
E-------4---4-6-7-4------------4-------------4-------------4-------------4-------|

/with fill :
E-------------------------------------------14-16-18---------|
B-------------------------11h14p11----11-14-------------16~--|
G-------11-13----------11----------11------------------------|
D-------------13-11------------------------------------------|
A-11-14-------------14---------------------------------------|
E------------------------------------------------------------|

E------------------------------------------------------------------------------------|
B------------------------------------------------------------------------------------|
G--------------------------------------------------------------------------1-3-1-----|
D-3---------------------------------------3--------------------1-3-1---1-3-------3-1-|
A-1--1-1-1--1-1-1--1-1-1--1-1-1--1-1-1--6-1--1-1-1--1-1-1--1-4-------4---------------|
E---------------------------------------4---------------------------------------------|

E----------------------------------------------------------------------------|
B----------------------------------------------------------------------------|
G--------------------------------------------------------------------8----5--|
D-3---------------------------------------3-----------5--3-----------6--5-3--|
A-1--1-1-1--1-1-1--1-1-1--1-1-1--1-1-1--4-1-----------3--1--6--5--3----------|
E---------------------------------------6----4--2--1--------4--3--1----------|

E-----------------------------|
B-----------------------------|
G-----------------------------|
D-/8--------7-6--8------------|
A-----8--8-------6---3--------|
E--------------------1--------|

with fill :
E----------8-----11-10-8------8-----11-10-8------8-----11-10-8--18---------17-16-----16-15-13-11-13--|
B-11b--8-8---11-----------8-8---11-----------8-8---11---------------18--18--------18-----------------|
G----------------------------------------------------------------------------------------------------|
D----------------------------------------------------------------------------------------------------|
A----------------------------------------------------------------------------------------------------|
E----------------------------------------------------------------------------------------------------|

Verse 1
E---------------------------------------------------------|
B----------------------------------------------------7-7--|
G----------------------------------------------------6-6--|
D-6--8-----------6-4---6--8-----9--------------------4-4--|
A-4--6--6------------7-4--6--/9-7--4---2---4---2----------|
E-------4--6--7--------------------2---0---2---0---0------|

E-----------------------------------------------------------------------------|
B---------8-8-----8-8-------------10-10-----10-10-------------8-8-----8-8-----|
G-----7-7-----7-7-----7-7-----9-9-------9-9-------9-9-----7-7-----7-7-----7-7-|
D-5-5---------------------7-7-------------------------5-5---------------------|
A-----------------------------------------------------------------------------|
E-----------------------------------------------------------------------------|

E------------------------------------------------------------------------------|
B---------10-10-------------8-8-----8-8---------10-10-10--10-10--10-10--10-10--|
G-----9-9-------9-9-----7-7-----7-7-----7-7-----9--9--9---9--9---9--9---9--9---|
D-7-7---------------5-5---------------------7---7--7--7---7--7---7--7---7--7---|
A------------------------------------------------------------------------------|
E------------------------------------------------------------------------------|

E---------------------------------------------------|
B---------------------------------------------------|
G-6--6-6--6-6--6--6--6-6--6-6--6--6--6-6--6-6--6----|
D-6--6-6--6-6--6--6--6-6--6-6--6--6--6-6--6-6--6----|
A-4--4-4--4-4--4--4--4-4--4-4--4--4--4-4--4-4--4----|
E---------------------------------------------------|

Verse 2
E---------------------------------------------------------------------------|
B---------------------------------------------------------------------------|
G---------------------------------------------------------------------------| x 2
D--------------------------------------------------------------------6--8---|
A--------------------------------------------------------------------4--6---|
E-1--1-1--1-1--1--1--1-1--1-1--1--1--1-1--1-1--1--1--1-1--1-1--1--1---------|

E---------------------------------------------------------------------------------------|
B---------------------------------------------------------------------------------------|
G---------------------------------------------------------------------------5-7-5-------|
D-7-------------------------------------5--7--------------------5-7-5---5-7-------7-5---|
A-5--5-5-5--5-5-5--5-5-5--5-5-5--5-5-5--3--5--5-5-5--5-5-5--5-8-------8---------------8-|
E---------------------------------------------------------------------------------------|

E------------------------------------------------------|
B------------------------------------------------------|
G------------------------------------------------------|
D-7-------------------------------------5--7--5--3--2--|
A-5--5-5-5--5-5-5--5-5-5--5-5-5--5-5-5--3--5--3--1--0--|
E------------------------------------------------------|

 
E----------------------------------------------------------|
B----------------------------------------------------------|
G----------------------------------------------------------|
D----------------3-----------------------------------------|
A-5--------------1--4--5--------------5-------------6--4---|
E-3--3-3-3-(sim)----2--3--3-3-3-(sim)-3-3-3-3-3-3-3-4--2---|

E---------------------------------------------------------------------------------------|
B---------------------------------------------------------------------------------------|
G---------------------------------------------------------------------------------------|
D-----------------------------------1-----------------------------1---------------------|
A-----1-2-1---1---1-2-1---------1-2---2-1---1---1-2-1---------1-2---2-1-------1-2-1-----|
E-1-4-------4---4-------4-1-4-4-----------4---4-------4-1-4-4-----------4-1-4-------4---|

E------------------------------------------------|
B------------------------------------------------|
G------------------------------------------------|
D-------------1----------------------------------|
A---------1-2---2-1---1---1-2-1-----------4--2---|
E-4-1-4-4-----------4---4-------4-1-4-1-1-2--0---|

repeat above once
E----------------------------------------------------------------|
B----------------------------------------------------------------|
G----------------------------------------------------------------|
D-----8---6---5-------8---6---5-------9---7---6-------9---5---6--|
A-3---6---4---3---3---6---4---3---4---7---5---4---4---7---7---4--|
E-1---------------1---------------2---------------2--------------|

with fill :
E------------------------------------------------------------------------------------|
B------------------------------------------------------------------------------------|
G-11--------11-9--14-13-11--------11-9--14-13-11--------11-9--14-13-13-14-11-13-9-13-|
D-----11-11-----------------11-11-----------------11-11------------------------------|
A------------------------------------------------------------------------------------|
E------------------------------------------------------------------------------------|

Solo 1:
E-20p15-------------------------------------------------------------------13-16-15--|
B-------16-------------------------------------------------------------15-----------|
G----------17----------------17-------------------------------------15--------------|
D-------------17----------17----17-------------13h15p13----------15-----------------|
A----------------18-15-18----------18-15-13h15----------15-13h17--------------------|
E-----------------------------------------------------------------------------------|

E-13--------------------------------------------------------------------|
B----16-15-13-----------------------------------------------------------|
G-------------13-12-10-13-12-10-12~--8h10-8-7-8-/10-8h10p8-7-5-7-5-5ah--|
D-----------------------------------------------------------------------|
A-----------------------------------------------------------------------|
E-----------------------------------------------------------------------|

E-------------------------------------------------------------------------|
B-------------------------------------------------------------------------|
G----------------------------------------------------------------19p15p12-|
D-------------------12h15p12----------15h17h20p17p15----------------------|
A-8-6-5h6p5---10h13----------13h17h20----------------17p13h17h20----------|
E-------------------------------------------------------------------------|

E----------15h18h22---------------------|
B---------------------------------------|
G-------------------19p15p12------------|
D-15p12h15-------------------15-12ah----|
A---------------------------------------|
E---------------------------------------|

Riff over solo 1
E---------------------------------|
B---------------------------------|
G---------------------------------|
D-5---3-----------5---3-----------|
A-3---1---6---5---3---1---6---5---|
E---------4---3-----------4---3---|

E----------------------------------------------------------------|
B----------------------------------------------------------------|
G----------------------------------------------------------------|
D----------------------------------------------------------------|
A-7--7-7--7--7-7--7--7-7--7--7-7--7--7-7--7--7-7--7--7-7--7--7-7-|
E-5--5-5--5--5-5--5--5-5--5--5-5--5--5-5--5--5-5--5--5-5--5--5-5-|

E----------------------------------------------------|
B----------------------------------------------------|
G----------------------------------------------------|
D----------------------------------------------------|
A-7--7-7--7--7-7--7--7-7--7--7-7--7--7-7--7--7-7-7---|
E-5--5-5--5--5-5--5--5-5--5--5-5--5--5-5--5--5-5-5---|

E-------------------------------------------------------|
B-------------------------------------------------------|
G-------------------------------------------------------|
D-8---------8---------6---------------------------------|
A-6----5----6----8----4----6----9----4----7----9----11--|
E------3---------6---------4----7----2----5----7----9---|

PART II
E-----------4-----------------4-----------------4-----------------4--------|
B-------4-------4---------4-------4---------4-------4---------4-------4----|
G---4h6---6---6---6---4h6---6---6---6---4h6---6---6---6---4h6---6---6---6--|
D--------------------------------------------------------------------------|
A-4-----------------4-----------------4-----------------4------------------|
E--------------------------------------------------------------------------|

E-----------4-----------------4-----------------4-----------------4---------|
B-------4-------4---------4-------4---------4-------4---------4-------4-----|
G---4h6---6---6---6---4h6---6---6---6---4h6---6---6---6---4h6---6---6---6---|
D---------------------------------------------------------------------------|
A-4-----------------4-----------------------------------4-------------------|
E-------------------------------------7-------------------------------------|

E-----------4-----------------4---------------------------------|
B-------4-------4---------4-------4-----9----7----5----4--------|
G---4h6---6---6---6---4h6---6---6---6-4----9----8----6----4-6---|
D-------------------4-------------------------------------------|
A-7-------------------------------------------------------------|
E---------------------------------------------------------------|
[ Tab from: http://www.guitartabs.cc/tabs/s/symphony_x/through_the_looking_glass_tab.html ]
repeat 3 times and last time end like this :
E------4---------------4-----------|
B----5---5---------4--------4------|
G--6-------6---4h6---4---6-----6---|
D----------------------------------|
A------------4---------------------|
E----------------------------------|

PART III
E-------------------------------------------------|
B-------------------------------------------------|
G-------------------------------------------------| x 3
D-----------------------------------6-4-2---------|
A-4--4-2--2-4--2-4-5-2-4--4-2--2-4----------------|
E-----------------------------------------7-5-4---|

E-------------------------------------|
B-------------------------------------|
G--------------4----------------------|
D--------4-6-7----5-6-5--6-5----------|
A-7-6-7----------------------7-6------|
E--------------------------------5-4--|

E-------------------------------------------------|
B-------------------------------------------------|
G-------------------------------------------------|
D-----------------------------------6-4-2---------|
A-4--4-2--2-4--2-4-5-2-4--4-2--2-4----------------|
E-----------------------------------------7-5-4---|

E-------------------------------------|
B-------------------------------------|
G--------------4----------------------|
D--------4-6-7----5-6-5--6-5----------|
A-7-6-7----------------------7-6------|
E--------------------------------5-4--|

Verse :
E-----------------------------------------|
B-----------------------------------------|
G-----------------------------------------| x 8
D-----------------------------------------|
A-4-----------------4--2--4--4-3-2-0------|
E-2--2p0-2--0-2-3-0-2--0--2----------0-3--|

 
E---------------------------------------------------------------------------------|
B---------------------------------------------------------------------------------|
G-6---8---6---8---9---11--9---11--------------------------------------------------|
D-6---8---6---8---9---11--9---11--------------------------------------------------|
A-4---6---4---6---7---9---7---9---6--6-6--6--6-6--6--6-6--6--6-6--6--6-6--6--6-6--|
E---------------------------------4--4-4--4--4-4--4--4-4--4--4-4--4--4-4--4--4-4--|

E-------7-----------6------------6------------6-------|
B-----9---9-------9---9--------9---9--------9---9-----|
G---8-------8---9-------9---10-------10---7-------7---| x 2
D-6-----------8-----------9-------------6-------------|
A-----------------------------------------------------|
E-----------------------------------------------------|

"Stop with all the lies"
E---------------------------------------------------------|
B---------------------------------------------------------|
G---------------------------------------------------------|
D----------------------2--4--6----------------------------|
A--6-----------2-------0--2--4------------6---6---9-8-6-6-|
E--4-4-4-4-4-4-0-0-0-0---------1-1-1-1-1--4-4-4-4-7-6-3-4-|

E--------------------------------------------------------------------|
B--------------------------------------------------------------------|
G--------------------------------------------------------------------|
D----------------------2-4---------------8-6-----------10-8----------|
A--6-----------2-------0-2-3-----------5-----5-------7------7--------|
E--4-4-4-4-4-4-0-0-0-0-----1-1-1-1-1-1---------7-6-4----------9-8-6--|

CHORUS :
E---------------------------------------------5----|
B--------------------------------------------5-----|
G-------------------------------------------7------|
D-7----3---5---3---5------------------5---7--------|
A-5----1---3---1---3--1-0-5---7---8---3---5--------|
E-------------------------3---5---6----------------|

E-------------------------------------|
B-------------------------------------|
G-------------------------------------|
D--3---5---3---5-------------------6--|
A--1---3---1---3--1-0-5---7---8----4--|
E---------------------3---5---6-------|

 
E-----------------------------------------|
B-----------------------------------------|
G-----------------------------------------| x 6
D-----------------------------------------|
A-4-----------------4--2--4--4-3-2-0------|
E-2--2p0-2--0-2-3-0-2--0--2----------0-3--|

 
E---------------------------------------------------------------------------|
B------12----12---------12----12----12------12----12---------12----12----12-|
G---11----11----11---12----12----12------13----13----13---10----10----10----| x 2
D-9----------------9-------------------9----------------9-------------------|
A---------------------------------------------------------------------------|
E---------------------------------------------------------------------------|

 
E-------------------------------------------------|
B-------------------------------------------------|
G-------------------------------------------------|
D-------------------------------------------------|
A-4---6---4---6---2---4---5---7-------------------|
E-2---4---2---4---0---2---3---5---5-5-5--5--5--5--|

CHORUS
 
 
E------------------------------------------------------|
B-----9-------------7---------------17---12--12/14-10--|
G-----11------------9---------------16---11--11/13-9---|
D-11--11--6-6/11-9--9---------------14---9---9-/11-7---|
A-9-------4-4/9--7------12-12-11-9---------------------|
E------------------------------------------------------|

E-----------------------------------------------------------12----15----17----20-|
B------------------------/8-----8------------------15-13-------13----15----17----|
G---------------------------7-7---9-------10h12----------14----------------------|
D-/7----7-5--/10-10-9-7-------------------------12-------------------------------|
A-----7-----------------------------12-------------------------------------------|
E--------------------------------------12----------------------------------------|

E------------------------------------------|
B------------------------/8----------------|
G---------------------------7-7--11p8-7----|
D-/7----7-5--/10-10-9-7--------------------|
A-----7------------------------------------|
E------------------------------------------|

E-----------------------------------------------4---|
B-----------------------------------------------4---|
G-----------------------------------------------6---|
D-6--------------4--6--------------4--6----6----6---|
A-4---6--7---4---2--4---6--7---4---2--4----4----4---|
E-----4--5---2----------4--5---2--------------------|

E----------------------------------------|
B-9--9--9--9--9--9--9--9--9--9--9--9-9---|
G-6--6--6--6--6--6--6--6--6--6--6--6-6---|
D-6--6--6--6--6--6--6--6--6--6--6--6-6---|
A----------------------------------------|
E----------------------------------------|

Riff over solo 2 :
E------------------------------------------------------------|
B------------------------------------------------------------|
G------------------------------------------------------------|
D-6--4--2----------------------------------------------------|
A-4--2--0--6------------2-----------3-----------2-------4/6--|
E----------4--4-4-4-4-4-0-0-0-0-0-0-1-1-1-1-1-1-0-0-0-0-2/4--|

Solo 2
E----------------------14-16-13h16p13----12----------------------|
B-------------------12----------------14----12-14----------------|
G--------8-------11-------------------------------13-16----------|
D-/6---9-------9----------------------------------------10h13----|
A----------6/7------------------------------------------------11-|
E----------------------------------------------------------------|

E-------------------------16h19h24p19p16------------16ah-----19-21-19-21b-|
B----------------------17----------------17---------------21--------------|
G-------------------16----------------------16----------------------------|
D----------------18----------------------------18~------------------------|
A-------14h18-19----------------------------------------------------------|
E-12-16-------------------------------------------------------------------|

E-24b--24-22-21-19----21----21----19h20p19----------------------------------|
B------------------21----------------------21-19----21----21----21----------|
G------------------------21----21----------------20----19----18----16/19/16-|
D---------------------------------------------------------------------------|
A---------------------------------------------------------------------------|
E---------------------------------------------------------------------------|

Riff over keyboard solo : 
E-------------------------------------------------|
B-------------------------------------------------|
G-------------------------------------------------|
D-6-----------2-----------3-----------2-----------|
A-4-4-4-4-4-4-0-0-0-0-0-0-1-1-1-1-1-1-0-0-0-0-0-0-|
E-------------------------------------------------|

Riff over solo 3 :
E------------------------------------------------------|
B------------------------------------------------------|
G------------------------------------------------------|
D-------------7-----------8-------------7--------------|
A-4-----------5-5-5-5-5-5-6-6-6-6-6-6-6-5-5-5-5-5-5-5--|
E-2-2-2-2-2-2------------------------------------------|

Solo 3 :
E-------21-------21-------19----------------------------------------------------|
B-17-19----17-19----16-17----------19-------------------------------------------|
G----------------------------16-18----------18-------18-------16-------14----16-|
D-------------------------------------16-18----16-18----14-16-------------16----|
A----------------------------------------------------------------14-16----------|
E-------------------------------------------------------------------------------|

E------------------------------------------------------------------------------|
B-------------------------------17b--/17---16----14h16p14----------------------|
G----17-17-16----14h16p14---------------------------------17-16-14----16----14-|
D-16----------16----------16-14------------------------------------16----16----|
A------------------------------------------------------------------------------|
E------------------------------------------------------------------------------|

E-14-11----------------------------14-19-16----------------------------17h22h24-|
B-------12----------------------16----------17----------------------19----------|
G----------11----------------16----------------16----------------19-------------|
D-------------13----------16----------------------18----------19----------------|
A----------------14-14-18----------------------------19-17-21-------------------|
E-------------------------------------------------------------------------------|

E-22h24p22p17--------------------|
B-------------19-----------------|
G----------------19----------19--|
D-------------------19-----------|
A----------------------21-17-----|
E--------------------------------|

Riff over keyboard solo 2
E------------------------------------------------------------|
B------------------------------------------------------------|
G------------------------------------------------------------|
D-7-------------3-------------4---------------3--------------|
A-5-5-5-5-5-5-5-1-1-1-1-1-1-1-2-2-2-2-2-2-2-2-1-1-1-1-1-1-1--|
E------------------------------------------------------------|

E-------------------------------------|
B-17b~--------------------------------|
G-------------------------------------|
D-------------------------------------|
A-4-----------------4--2--4--4-3-0----|
E-2--2p0-2--0-2-3-0-2--0--2--------0--|

E-------------------------------------|
B-------------------------------------|
G-------------------------------------| x 3
D-------------------------------------|
A-4-----------------4--2--4--4-3-0----|
E-2--2p0-2--0-2-3-0-2--0--2--------0--|


E---------5--------------------------------------------------|
B---------5--------------------------------------------------|
G---------7-------------8-9-----11----12-11-9----------------|
D-----6---7------10---6-------9----10---------10--8----------|
A---4---5------8----4-------7-----------------------9-7------|
E-2----------6------------------------------------------8-6--|

E-----------------------------------------------------------------------------------|
B-----------------------------------------------------------------------------------|
G-----------------------------------------------------------------------------------|
D-----------------------------------------------------------------------------------|
A-7--7-7--7--7-7-7-7-7-7--7--7---7--7--7--7-7---7-7-7---7-7-7--7-7-7-7-7-7-8--8--10-|
E-5--5-5--5--5-5-5-5-5-5--5--5---5--5--5--5-5---5-5-5---5-5-5--5-5-5-5-5-5-6--6--8--|

CHORUS :
E---------------------------------------------5----|
B--------------------------------------------5-----|
G-------------------------------------------7------|
D-7----3---5---3---5------------------5---7--------|
A-5----1---3---1---3--1-0-5---7---8---3---5--------|
E-------------------------3---5---6----------------|

E------------------------------------------|
B------------------------------------------|
G------------------------------------------|
D---3---5---3---5-------------------6---8--|
A---1---3---1---3--1-0-5---7---8----4---6--|
E----------------------3---5---6-----------|

E-------------------------------------------6----|
B------------------------------------------6-----|
G-----------------------------------------8------|
D-4---6---4---6-------------------6---8----------|
A-2---4---2---4-------6---8---9---4---6----------|
E-----------------7-6-4---6---7------------------|

E---------------------------------------|
B---------------------------------------|
G---------------------------------------|
D-4---6---4---6-------------------7-----|
A-2---4---2---4-------6---8---9---5-----|
E-----------------7-6-4---6---7---------|

E----0--------------5-----------------10------------------------------------------|
B----0--------------5-----------------10------------------------------------------|
G-------------------7-----------------7---9--9--13--------------------------------|
D-9-----4--4--9--7--7---12--12--11-9--7---7--7--11--5---7--9--9-9--9--9-9-9--9--9-|
A-7-----2--2--7--5------10--10--9--7----------------3---5--7--7-7--7--7-7-7--7--7-|
E-0-------------------------------------------------------------------------------|
Comments