Symphony X - The Odyssey Chords & Tabs

 

The Odyssey Chords & Tabs

Symphony X Chords & Tabs

Version: 1 Type: Bass Tab 0 ratings
1 star 2 stars 3 stars 4 stars 5 stars
comments

The Odyssey Bass Tab

                       The Odyssey                                   
                                                                            
Mike Lepond

F||-----|------------------------------|-------------------------------|
C||-----|------------------------------|-------------------------------|
G||--5--|--5---------------------------|--5----------------------------|
D||-----|---------------------3--3--3--|-------------------------------|
A||-----|------------------------------|-------------------------------|
                                                          
-----|-------------------------------|------------------------------|
-----|-------------------------------|---------------------2--2--2--|
--5--|-------------------------------|------------------------------|
-----|--2----------------------------|--2---------------------------|
-----|-------------------------------|------------------------------|
                                                                        
-------------------------------|-------------------|-------------------|
-------------------------------|-------------------|-------------------|
-------------------------------|-------------------|--4----------------|
--2----------------------------|--2----------------|-------------------|
-------------------------------|-------------------|-------------------|
                              
-----------------------------|-----------------------|-------------------|
-----------------------------|-----------------------|-------------------|
------4--4--4--4----4--4--4--|--4--------4---4---2---|-------------------|
-----------------------------|-----------------------|--5----------------|
-----------------------------|-----------------------|-------------------|
                                                              
--------------------|------------------1---1----1--|------------------1---1----1--|
--------------------|------------------------------|------------------------------|
--------------------|------------------------------|------------------------------|
-----------2--------|--4----4----4--4--------------|--4----4----4--4--------------|
--5-----------------|------------------------------|------------------------------|
                                                                          
------------------------------------|------------------------------------|
----------6--4--6----------6--4--6--|----------6--4--6----------6--4--6--|
------------------------------------|------------------------------------|
--4----4-----------4----4-----------|--4----4-----------4----4-----------|
------------------------------------|------------------------------------|
                                                               
--------------------|--------------------|--------------------|
--------------------|--------------------|--------------------|
--------------------|--------------------|--------------------|
--4--------4--------|--4--------4--------|--4--------4--------|
--------------------|--------------------|--------------------|
                                                            
--------------------|-----|---------------------------|---------------------------|
--------------------|-----|---------------------------|---------------------------|
--------------------|-----|----5----5--5----5----5----|------5--5----5----5--5----|
--4--------4--------|-----|---------------------------|---------------------------|
--------------------|--4--|---------------------------|---------------------------|
                                                                  
--------------------------|---------------------------|----------|
--------------------------|---------------------------|----------|
--5------5----5--5--------|----5--5--5----5------5----|----------|
--------------------------|---------------------------|----------|
--------------------------|---------------------------|----------|


                                                        
---------------------------|---------------------------|
---------------------------|---------------------------|
----5----5--5----5----5----|------5--5----5----5--5----|
---------------------------|---------------------------|
---------------------------|---------------------------|


                                                                          
--------------------------|---------------------------|------------------|
--------------------------|---------------------------|------------------|
--5------5----5--5--------|----5--5--5----5------5----|------------------|
--------------------------|---------------------------|------------------|
--------------------------|---------------------------|------------------|


                                                                             
------------------|--------------|----------------------------------|
------------------|--------------|----------------------------------|
--5----------5----|------5-------|--5---5--5--5--5--5---5--5--5--5--|
------------------|--------------|----------------------------------|
------------------|--------------|----------------------------------|
                                                                          
----------------------------------|-------------------|------------------|
----------------------------------|-------------------|------------------|
--5---5--5--5--5--5---5--5--5--5--|--5----------------|------------------|
----------------------------------|-------------------|------------------|
----------------------------------|-------------------|------------------|


                                                                      
-----------------------|--------------------|------------------------|
---------3-------------|------3-------------|--3---------------------|
--5-----------2-2-2----|---------2----------|-----5------------------|
-----------------------|--------------------|------------------------|
-----------------------|--------------------|------------------------|


                                                                            
------------------|------------------|------------------|------------------|
------------------|------------------|------------------|------------------|
------------------|------------------|------------------|------------------|
------------------|------------------|------------------|------------------|
------------------|------------------|------------------|------------------|


                                                                               
------------------|------------------|---------------|------------------------|
------------------|------------------|---------------|------------------------|
------------------|------------------|---------------|--5----5-5-5----5----5--|
------------------|------------------|------------5--|------------------------|
------------------|------------------|---------------|------------------------|


                                                                             
------------------------------|---------------------------------------------|
------------------------------|---------------------------------------------|
--5-5-5--5-5-5--4-4-4--4-4-4--|---------------------------------------------|
------------------------------|--2----2-2-2----2----2--2-2-2--2-2-2--2-2-2--|
------------------------------|---------------------------------------------|


                                     
------------------------------------|
------------------------------------|
------------------------------------|
--2----2-2-2----2----2--0--0--0--0--|
------------------------------------|


                                              
---------------------------------------------|
---------------------------------------------|
---------------------------------------------|
--2----2-2-2----2----2--2-2-2--2-2-2--2-2-2--|
---------------------------------------------|


                                     
------------------------------------|
------------------------------------|
------------------------------------|
--2----2-2-2----2----2--0--0--0--0--|
------------------------------------|


                                                           
----------------------------------------------------------|
----------------------------------------------------------|
----------------------------------------------------------|
--5-5-5-5-5-5-5-5-5-5-5-5-5-5-5-5-5-5-5-5-5-5-5-5-5-5-5-5-|
----------------------------------------------------------|


                                                   
--------------------------------------------------|
----------------------------------5-4-2-----------|
----------------------------------------5-4-2-----|
--5-5-5-5-5-5-5-5-5-5-5-5-5-5-5-5-------------5-3-|
--------------------------------------------------|


                                                           
----------------------------------------------------------|
----------------------------------------------------------|
----------------------------------------------------------|
--5-5-5-5-5-5-5-5-5-5-5-5-5-5-5-5-5-5-5-5-5-5-5-5-5-5-5-5-|
----------------------------------------------------------|


                                                           
-------------------------------|--------------------------|
-------------------------------|--------------------------|
-------------------------------|--------------------------|
--5-5-5-5-5-5-5-5-5-5-5-5-5----|--3----3----3----3--------|
-------------------------------|--------------------------|


                                                               
----------------------------------|---------------------------|
--7-9-7-5-7-9-7-5-7-9-7-5-7-9-7-5-|---------------------------|
----------------------------------|----------------------5----|
----------------------------------|--3----3----3----3---------|
----------------------------------|---------------------------|


                                                                              
-------------------|-------------------|------------------|------------------|
-------------------|--7----------------|------------------|------------------|
-------------------|-------------------|------------------|------------------|
--5----------------|-------------------|------------------|------------------|
-------------------|-------------------|------------------|------------------|

                                                                               
------------------|------------------|-------------------|--------------------|
------------------|------------------|-------------------|--------------------|
------------------|------------------|-------------------|--------------------|
------------------|------------------|-------------------|--------------------|
------------------|------------------|--4----------------|--4----4------------|


                                                                  
--------------------|------------------------|-------------------|
--------------------|-------1-----3--1-------|-------------------|
--------------------|--3-------3--------3----|-------------------|
--------------------|------------------------|-------------------|
------4----4--------|------------------------|--4----------------|


                                                                   
--------------------|--------------------|------------------------|
--------------------|--------------------|--3----1-----3--1-------|
--------------------|--------------------|----------3--------3----|
--------------------|--------------------|------------------------|
--4----4------------|------4----4--------|------------------------|


                                                             
-------------------|-------------------|--------------------|
-------------------|-------------------|--------------------|
-------------------|--6----------------|--------------------|
-------------------|-------------------|-----------2--------|
--4----------------|-------------------|--5-----------------|


                                                              
---------------------|-------------------|-------------------|
---------------------|-------------------|-------------------|
----------------2----|--3----------------|--2----------------|
--4--------5---------|-------------------|-------------------|
---------------------|-------------------|-------------------|


                                                            
-------------------|-------------------|-------------------|
-------------------|-------------------|-------------------|
-------------------|-------------------|-------------------|
--5----------------|--3----------------|--1----------------|
-------------------|-------------------|-------------------|


                                                                               
--------------------|------------------|------------------|-------------------|
--------------------|------------------|------------------|-------------------|
--------------------|------------------|------------------|-------------------|
--------------------|------------------|------------------|--5----------------|
--3--------5--------|------------------|------------------|-------------------|
------------------|-------------------|------------------|------------------|
------------------|-------------------|------------------|------------------|
------------------|--5----------------|------------------|------------------|
------------------|-------------------|------------------|------------------|
------------------|-------------------|------------------|------------------|


                                                                          
--------------------------|--------------------------|-------------------|
--3------2----------------|--------------------------|-------------------|
----------------5----3----|--3------2----------------|-------------------|
--------------------------|----------------1----3----|--5----------------|
--------------------------|--------------------------|-------------------|


                                                                       
---------------------|--------------------|---------------------------|
---------------------|--------------------|--7------5------4----------|
---------------5--7--|-----------------7--|---------------------7--5--|
--5------------------|--5-----------------|---------------------------|
---------------------|--------------------|---------------------------|


                                                               
-------------------|---------------------|--------------------|
-------------------|---------------------|--------------------|
-------------------|---------------5--7--|-----------------7--|
--5----------------|--5------------------|--5-----------------|
-------------------|---------------------|--------------------|


                                                                      
---------------------------|-------------------|---------------------|
--7------5------4----------|-------------------|---------------------|
---------------------7--5--|-------------------|---------------5--7--|
---------------------------|--5----------------|--5------------------|
---------------------------|-------------------|---------------------|


                                                                     
--------------------|---------------------------|-------------------|
--------------------|--7------5------4----2-----|-------------------|
-----------------7--|------------------------5--|-------------------|
--5-----------------|---------------------------|--5----------------|
--------------------|---------------------------|-------------------|


                                                                       
---------------------|--------------------|---------------------------|
---------------------|-----------------2--|--7------5------4----------|
---------------5--7--|-----------------7--|---------------------7--5--|
--5------------------|--5-----------------|---------------------------|
---------------------|--------------------|---------------------------|


                                                        
---------------------------|---------------------------|
--7------5------4----------|---------------------------|
---------------------7--5--|---------------------------|
---------------------------|--5------------------------|
---------------------------|---------------------------|


                                                                  
--------------------------|----------------------|---------------|
--------------------------|--7------5------------|---------------|
----------------5----7----|----------------3-----|--5------------|
--5------7----------------|-------------------5--|---------------|
--------------------------|----------------------|---------------|


                                                                 
---------------|----------------|---------------|---------------|
---------------|----------------|---------------|---------------|
--3------------|--1------3------|--5------------|---------------|
---------------|----------------|---------------|--1------------|
---------------|----------------|---------------|---------------|


                                                                    
---------------|-----------------------------------|---------------|
---------------|-----------------------------------|---------------|
--3------------|-----------------------------------|--5------------|
---------------|--3--------------------3--1--3--5--|---------------|
---------------|-----------------------------------|---------------|


                                                                 
---------------|----------------|---------------|---------------|
---------------|----------------|---------------|---------------|
--3------------|--1------3------|--5------------|---------------|
---------------|----------------|---------------|--1------------|
---------------|----------------|---------------|---------------|


                                                                           
---------------|-------------------|------------------|-------------------|
---------------|-------------------|------------------|-------------------|
---------------|-------------------|------------------|--5----------------|
--3------------|--5----------------|------------------|-------------------|
---------------|-------------------|------------------|-------------------|
------------|----------------|----------------------------|
------------|----------------|----------------------------|
------------|----------------|----------------------------|
------------|----------------|--5-5-5-5-6-5-5-5-----------|
------------|----------------|----------------------------|


                                                                                
----------------------------------|------------|------------|------------------|
----------------------------------|------------|------------|----------5-5--5--|
----------------------------------|------------|------------|--7-7--7----------|
--5-5-5-5-6-5-5-5-5-5-6-5-6-5-5-5-|------------|------------|------------------|
----------------------------------|------------|------------|------------------|


                                                  
------------------|------------------------------|
------------------|------------------------------|
--6-6--6--7-7--7--|--8---------------------------|
------------------|-------1--1--1--1----1--1--1--|
------------------|------------------------------|


                                                              
------------------------------|------------------------------|
------------------------------|------------------------------|
------------------------------|------------------------------|
--1----1--1--1--1----1--1--1--|--1----1--1--1--1----1--1--1--|
------------------------------|------------------------------|


                                                                  
------------------------------|----------------------------------|
------------------------------|----------------------------------|
------------------------------|-------7--7--7--6--6--6-----------|
--1----1--1--1--1----1--1--1--|--1----------------------7--7--7--|
------------------------------|----------------------------------|


                                                              
------------------------------|------------------------------|
------------------------------|------------------------------|
--4----4--4--4--4----4--4--4--|--4----4--4--4--4----4--4--4--|
------------------------------|------------------------------|
------------------------------|------------------------------|


                                                                        
----------------------------------|------------------------------------|
----------------------------------|------------------7--7--7--7--5-----|
--4----4--4--4--4--------2--------|---------------------------------7--|
----------------------------------|--5----5----5--5--------------------|
----------------------------------|------------------------------------|


                                                                          
------------------------------------|------------------------------------|
------------------7--7--7--7--5-----|------------------7--7--7--7--5-----|
---------------------------------7--|---------------------------------7--|
--5----5----5--5--------------------|--5----5----5--5--------------------|
------------------------------------|------------------------------------|


                                                                           
------------------------------------|------------------|------------------|
------------------7--7--7--7--5-----|------------------|------------------|
---------------------------------7--|------------------|------------------|
--5----5----5--5--------------------|--5--5-5--5-------|--5--5-5--5-------|
------------------------------------|------------6--8--|------------6--8--|


                                                                            
------------------|------------------|------------------|------------------|
------------------|------------------|------------------|------------------|
------------------|------------------|------------------|------------------|
--5--5-5--5-------|--5--5-5--5-------|--5--5-5--5-------|--5--5-5--5-------|
------------6--8--|------------6--8--|------------6--8--|------------6--8--|


                                                                            
------------------|------------------|------------------|------------------|
------------------|------------------|------------------|------------------|
------------------|------------------|------------------|------------------|
--5--5-5--5-------|--5--5-5--5-------|--5--5-5--5-------|--5--5-5--5-------|
------------6--8--|------------6--8--|------------6--8--|------------6--8--|


                                                                            
------------------|------------------|------------------|------------------|
------------------|------------------|------------------|------------------|
------------------|------------------|------------------|------------------|
--5--5-5--5-------|--5--5-5--5-------|--3--3-3--3-------|--3--3-3--3-------|
------------6--8--|------------6--8--|------------4--6--|------------4--6--|


                                                                        
------------------|------------------|----------------|----------------|
------------------|------------------|--6---6---------|----------------|
------------------|------------------|----------7--7--|--6-------------|
--3--3-3--3-------|--3--3-3--3-------|----------------|------3---4--6--|
------------4--6--|------------4--6--|----------------|----------------|


                                                        
----------------|-------------------|------------------|
----------------|-------------------|------------------|
----------------|-------------------|------------------|
--4---4---------|-------------------|------------------|
----------5--5--|--4----------------|------------------|


                                                                 
----------------------------------|-----------------------------|
----------------------------------|-----------------------------|
----------------------------------|-----------------------------|
--4-4-4-4-4-4-4-4-4-4-4-4-4-4-4-4-|----------4--4-4-4-4-4-4-4-4-|
----------------------------------|--5---7----------------------|


                                                                
---------------------------------|-----------------------------|
---------------------------------|-----------------------------|
---------------------------------|-----------------------------|
--4--4-4-4-4-4-4-4-4-4-4-4-4-4-4-|----------4--4-4-4-4-4-4-4-4-|
---------------------------------|--5---7----------------------|


                                                                
---------------------------------|-----------------------------|
---------------------------------|-----------------------------|
--3--3-3-3-3-3-3-3-3-3-3-3-3-3-3-|----------3--3-3-3-3-3-3-3-3-|
---------------------------------|--4---6----------------------|
---------------------------------|-----------------------------|


                                                                
---------------------------------|-----------------------------|
---------------------------------|-----------------------------|
--3--3-3-3-3-3-3-3-3-3-3-3-3-3-3-|----------3--3-3-3-3-3-3-3-3-|
---------------------------------|--4---6----------------------|
---------------------------------|-----------------------------|


                                                                              
------------------|------------------|------------------|--------------------|
------------------|------------------|------------------|--------------------|
--6--6-6--6-------|--6--6-6--6-------|--6--6-6--6-------|--------------------|
------------7--9--|------------7--9--|------------7--9--|--7--------9--------|
------------------|------------------|------------------|--------------------|


                                                                      
-------------------|------------------------|------------------------|
-------------------|------------------------|------------------------|
-------------------|------------------------|------------------------|
-------------------|------------------------|------------------------|
--7----------------|------------------------|------------------------|


                                                                
-------------------------------|-------------------------------|
-------------------------------|-------------------------------|
-------------------------------|-------------------------------|
--2----2--2----2--2----2----2--|--2----2--2----2--2----2----2--|
-------------------------------|-------------------------------|


                                                                            
-----------------------|------------------------|--------------------------|
-----------------------|------------------------|--------------------------|
-----------------------|------------------------|--------------1-3-4-3-1---|
--2----2--2----2--2----|--2--2----2--2----2--2--|--2-3-2---2-3-----------3-|
-----------------------|------------------------|--------5-----------------|


                                                                   
-----------------------|------------------------|-----------------|
-----------------------|------------------------|-----------------|
-----------------------|------------------------|--3--3--3--3--3--|
--2----2--2----2--2----|--2--2----2--2----2--2--|-----------------|
-----------------------|------------------------|-----------------|


                                                                            
-----------------------|------------------------|--------------------------|
-----------------------|------------------------|--------------------------|
-----------------------|------------------------|--------------1-3-4-3-1---|
--2----2--2----2--2----|--2--2----2--2----2--2--|--2-3-2---2-3-----------3-|
-----------------------|------------------------|--------5-----------------|


                                                                   
-----------------------|------------------------|-----------------|
-----------------------|------------------------|-----------------|
-----------------------|------------------------|--3--3--3--3--3--|
--2----2--2----2--2----|--2--2----2--2----2--2--|-----------------|
-----------------------|------------------------|-----------------|


                                                                   
-----------------|-----------------------|------------------------|
-----------------|-----------------------|------------------------|
--3--3--3--3--3--|-----------------------|------------------------|
-----------------|--2----2--2----2--2----|--2--2----2--2----2--2--|
-----------------|-----------------------|------------------------|


                                                                            
--------------------------|-----------------------|------------------------|
--------------------------|-----------------------|------------------------|
--------------1-3-4-3-1---|-----------------------|------------------------|
--2-3-2---2-3-----------3-|--2----2--2----2--2----|--2--2----2--2----2--2--|
--------5-----------------|-----------------------|------------------------|


                                                                   
-----------------|-----------------------|------------------------|
-----------------|-----------------------|------------------------|
--3--3--3--3--3--|-----------------------|------------------------|
-----------------|--2----2--2----2--2----|--2--2----2--2----2--2--|
-----------------|-----------------------|------------------------|


                                                                            
--------------------------|-----------------------|------------------------|
--------------------------|-----------------------|------------------------|
--------------1-3-4-3-1---|-----------------------|------------------------|
--2-3-2---2-3-----------3-|--2----2--2----2--2----|--2--2----2--2----2--2--|
--------5-----------------|-----------------------|------------------------|


                                                                    
-------------------|-------------|-------------------|-------------|
-------------------|-------------|-------------------|-------------|
-------------------|-------------|-------------------|-------------|
--3----------------|------5------|--3----------------|------5------|
-------------------|-------------|-------------------|-------------|


                                                                    
-------------------|-------------|-------------------|-------------|
-------------------|-------------|-------------------|-------------|
-------------------|-------------|-------------------|-------------|
--3----------------|------5------|--3----------------|------5------|
-------------------|-------------|-------------------|-------------|


                                                               
-----------------------------|--------------------------------|
-----------------------------|--------------------------------|
--------4--3--------------1--|--------4--3--------------1-----|
--2--0--------0--2--0--3-----|--2--0--------0--2--0--3-----0--|
-----------------------------|--------------------------------|


                                                                           
-----------------------------|--------------------------------|-----------|
-----------------------------|--------------------------------|-----------|
--------4--3--------------1--|--------4--3--------------1-----|-----------|
--2--0--------0--2--0--3-----|--2--0--------0--2--0--3-----0--|--3--------|
-----------------------------|--------------------------------|-----------|

                                                              
------------------------------|------------------------------|
------------------------------|------------------------------|
------------------------------|----------------------3-3-3-3-|
--3-2--3-2--3-2--3-2--2-2-2-2-|--3-2--3-2--3-2--3-2----------|
------------------------------|------------------------------|


                                                              
------------------------------|------------------------------|
------------------------------|------------------------------|
------------------------------|----------------------------1-|
--3-2--3-2--3-2--3-2--2-2-2-2-|--3-2--3-2--3-2--3-2--2-0-3---|
------------------------------|------------------------------|


                                                              
------------------------------|------------------------------|
------------------------------|------------------------------|
------------------------------|----------------------3-3-3-3-|
--3-2--3-2--3-2--3-2--2-2-2-2-|--3-2--3-2--3-2--3-2----------|
------------------------------|------------------------------|


                                                              
------------------------------|------------------------------|
------------------------------|------------------------------|
------------------------------|----------------------------1-|
--3-2--3-2--3-2--3-2--2-2-2-2-|--3-2--3-2--3-2--3-2--2-0-3---|
------------------------------|------------------------------|


                                                              
------------------------------|------------------------------|
------------------------------|------------------------------|
------------------------------|----------------------3-3-3-3-|
--3-2--3-2--3-2--3-2--2-2-2-2-|--3-2--3-2--3-2--3-2----------|
------------------------------|------------------------------|


                                                              
------------------------------|------------------------------|
------------------------------|------------------------------|
------------------------------|----------------------------1-|
--3-2--3-2--3-2--3-2--2-2-2-2-|--3-2--3-2--3-2--3-2--2-0-3---|
------------------------------|------------------------------|


                                                              
------------------------------|------------------------------|
------------------------------|------------------------------|
------------------------------|----------------------3-3-3-3-|
--3-2--3-2--3-2--3-2--2-2-2-2-|--3-2--3-2--3-2--3-2----------|
------------------------------|------------------------------|


                                                              
------------------------------|------------------------------|
------------------------------|------------------------------|
------------------------------|----------------------------1-|
--3-2--3-2--3-2--3-2--2-2-2-2-|--3-2--3-2--3-2--3-2--2-0-3---|
------------------------------|------------------------------|


                                                              
------------------------------|------------------------------|
------------------------------|------------------------------|
------------------------------|----------------------3-3-3-3-|
--3-2--3-2--3-2--3-2--2-2-2-2-|--3-2--3-2--3-2--3-2----------|
------------------------------|------------------------------|


                                                              
------------------------------|------------------------------|
------------------------------|------------------------------|
------------------------------|----------------------------1-|
--3-2--3-2--3-2--3-2--2-2-2-2-|--3-2--3-2--3-2--3-2--2-0-3---|
------------------------------|------------------------------|


                                                              
------------------------------|------------------------------|
------------------------------|------------------------------|
------------------------------|----------------------3-3-3-3-|
--3-2--3-2--3-2--3-2--2-2-2-2-|--3-2--3-2--3-2--3-2----------|
------------------------------|------------------------------|


                                                                              
------------------------------|------------------------|---------------------|
------------------------------|------------------------|---------------------|
------------------------------|------------------------|--1------4-----------|
--3-2--3-2--3-2--3-2--2-2-2-2-|--3-2--3-2--3-2---------|------------------3--|
------------------------------|------------------------|---------------------|


                                                                    
----------------------|---------------------|----------------------|
----------------------|---------------------|----------------------|
----------------------|--1------4-----------|----------------------|
--------2----2--2--2--|------------------3--|--------2----2--2--2--|
----------------------|---------------------|----------------------|


                                                                  
---------------------|----------------------|--------------------|
---------------------|----------------------|--------------------|
--1------4-----------|----------------------|-----------------2--|
------------------3--|--------2----2--2--2--|--1-----------------|
---------------------|----------------------|--------------------|
                                                                           
------------|------------------------------|------------------------------|
------------|------------------------------|------------------------------|
------------|------------------------------|----------------------3-3-3-3-|
------------|--3-2--3-2--3-2--3-2--2-2-2-2-|--3-2--3-2--3-2--3-2----------|
------------|------------------------------|------------------------------|


                                                              
------------------------------|------------------------------|
------------------------------|------------------------------|
------------------------------|----------------------------1-|
--3-2--3-2--3-2--3-2--2-2-2-2-|--3-2--3-2--3-2--3-2--2-0-3---|
------------------------------|------------------------------|


                                                              
------------------------------|------------------------------|
------------------------------|------------------------------|
------------------------------|----------------------3-3-3-3-|
--3-2--3-2--3-2--3-2--2-2-2-2-|--3-2--3-2--3-2--3-2----------|
------------------------------|------------------------------|


                                                              
------------------------------|------------------------------|
------------------------------|------------------------------|
------------------------------|----------------------------1-|
--3-2--3-2--3-2--3-2--2-2-2-2-|--3-2--3-2--3-2--3-2--2-0-3---|
------------------------------|------------------------------|


                                                              
------------------------------|------------------------------|
------------------------------|------------------------------|
------------------------------|----------------------3-3-3-3-|
--3-2--3-2--3-2--3-2--2-2-2-2-|--3-2--3-2--3-2--3-2----------|
------------------------------|------------------------------|


                                                              
------------------------------|------------------------------|
------------------------------|------------------------------|
------------------------------|----------------------------1-|
--3-2--3-2--3-2--3-2--2-2-2-2-|--3-2--3-2--3-2--3-2--2-0-3---|
------------------------------|------------------------------|


                                                              
------------------------------|------------------------------|
------------------------------|------------------------------|
------------------------------|----------------------3-3-3-3-|
--3-2--3-2--3-2--3-2--2-2-2-2-|--3-2--3-2--3-2--3-2----------|
------------------------------|------------------------------|


                                                           
------------------------------|---------------------------|
------------------------------|---------------------------|
------------------------------|---------------------------|
--3-2--3-2--3-2--3-2--2-2-2-2-|--3-2--3-2--3-2---2--2--2--|
------------------------------|---------------------------|


                                                                   
---------------------|----------------------|---------------------|
---------------------|----------------------|---------------------|
--1------4-----------|----------------------|--1------4-----------|
------------------3--|--------2----2--2--2--|------------------3--|
---------------------|----------------------|---------------------|


                                                                    
----------------------|---------------------|----------------------|
----------------------|---------------------|----------------------|
----------------------|--1------4-----------|----------------------|
--------2----2--2--2--|------------------3--|--------2----2--2--2--|
----------------------|---------------------|----------------------|


                                                                           
--------------------|------------------|----------------------------------|
--------------------|------------------|----------------------------------|
-----------------2--|------------------|----------------------------------|
--1-----------------|------------------|--1-0-0-0-0-0-0-0-1-0-0-0-0-0-0-0-|
--------------------|------------------|----------------------------------|


                                                                      
----------------------------------|----------------------------------|
----------------------------------|----------------------------------|
----------------------------------|----------------------------------|
--1-0-0-0-0-0-0-0-1-0-0-0-0-0-0-0-|--1-0-0-0-0-0-0-0-1-0-0-0-0-0-0-0-|
----------------------------------|----------------------------------|


                                                                     
----------------------------------|-----------------------------3-4-|
----------------------------------|---------------------------4-----|
----------------------------------|---------------------1-2-4-------|
--1-0-0-0-0-0-0-0-1-0-0-0-0-0-0-0-|--1-0-0-0-0-0-0-0-0--------------|
----------------------------------|---------------------------------|


                                                                
--------------------|--------------------|---------------------|
--4------4----------|--------------------|--1------------------|
--------------------|------3-------------|-------0----3--------|
--------------------|---------2----------|---------------------|
--------------------|--------------------|---------------------|


                                                                                
--------------------|--------------------|----------------------|--------------|
--------------------|--------------------|----------------------|--------------|
--------------------|------3-------------|----6-----------------|----3---------|
----2----2----------|---------2----------|---------5----8-------|-------2------|
--------------------|--------------------|-------------------7--|--------------|


                                                                           
--5----2--------------|----------------------|----------------------------|
------------4----1----|----------------------|--------2-------4-5-4-2-----|
----------------------|-------------4-----4--|--3--------4------------3-4-|
----------------------|--2-------------2-----|-----2----------------------|
----------------------|----------------------|----------------------------|


                                                                    
---------------------|----------------------|----------------------|
---------------------|----------------------|----------------------|
--3-1----------------|----------------------|--3-------------------|
------2-3-2-0--------|----2----2------0--2--|-------2----2------0--|
--------------1-2-1--|----------------------|----------------------|


                                                     
------------------------|---------------------------|
----------1-------------|---------------------------|
-----3---------3--------|-------3-----------3----3--|
--2---------------2--3--|----2-----------2----------|
------------------------|---------------------------|


                                                        
---------------------------|---------------------------|
---------------------------|-------1-----------1----1--|
-------3-----------3----3--|----0-----------0----------|
----2-----------2----------|---------------------------|
---------------------------|---------------------------|


                                                                         
---------------------------|----------------------|---------------------|
-------1-----------1----1--|-------------------4--|----4----------------|
----0-----------0----------|----3--3--------3-----|---------3--3--------|
---------------------------|----------------------|---------------------|
---------------------------|----------------------|---------------------|


                                                                    
------------------9----|----8------6------5--|---------------------|
-----4----4------------|---------------------|---------------------|
--3------------3-------|---------------------|------7----6----4----|
-----------------------|---------------------|---------------------|
-----------------------|---------------------|---------------------|


                                                                      
--------------------|----------------------|-------------------------|
--------------------|----------------------|-------------------------|
--3-----------------|----------------------|-------------------------|
-------2------------|----------------------|-------------------------|
--------------------|----------------------|--5----------------------|

[ Tab from: http://www.guitartabs.cc/tabs/s/symphony_x/the_odyssey_btab.html ]
                                                                            
------------------------|-------------------------|------------------------|
------------------------|-------------------------|------------------------|
------------------------|-------------------------|------------------------|
------------------------|-------------------------|------------------------|
------------------------|--0----------------------|------------------------|


                                                              
-------------------|--------------------|--------------------|
-------------------|--------------------|-----------------9--|
-------------------|--------------------|--------------------|
-------------------|----------------5-7-|--------------------|
--5----------------|--------------------|--5-----------------|


                                                                  
-----------------------|-------------------|---------------------|
----7----5----4----5-4-|--2----------------|---------------------|
-----------------------|-------------------|--3------3------3----|
-----------------------|-------------------|---------------------|
-----------------------|-------------------|---------------------|


                                                              
--------------------|--------------------|-------------------|
--------------------|--------------------|-------------------|
--3--------------3--|--3-----------------|-------------------|
--------------------|-----------2--------|-------------------|
--------------------|--------------------|--5----------------|


                                                                  
--------------------|--------------------|--9--7----6---------6--|
--------------------|--------------------|---------------7-------|
--------------------|-----------------7--|-----------------------|
----------------5-7-|--------------------|-----------------------|
--------------------|--5-----------------|-----------------------|


                                                              
--4----------------|----------------------|------------------|
-------------------|----------------------|------------------|
-------------------|--3------3------3--3--|------------------|
-------------------|----------------------|------------------|
-------------------|----------------------|------------------|


                                                                  
----------------------|------------------|-----------------------|
----------------------|------------------|-----------------------|
--3------3------3--3--|------------------|--4--------------------|
----------------------|------------------|-----------------------|
----------------------|------------------|-----------------------|


                                                        
---------------------------|---------------------------|
---------------------------|---------------------------|
--------4------------------|--2--4--------2--2--4------|
---------------------------|---------------------------|
---------------------------|---------------------------|


                                                              
---------------------------------|---------------------------|
---------------------------------|---------------------------|
--2--4--------2--2--4----2----2--|--2--4--------2--2--4------|
---------------------------------|---------------------------|
---------------------------------|---------------------------|


                                                                  
-------------------------------------|---------------------------|
-------------------------------------|---------------------------|
--2--4--------2--2--4----------------|--2--4--------2--2--4------|
-------------------------2-0-2-3-2-0-|---------------------------|
-------------------------------------|---------------------------|


                                                              
---------------------------------|---------------------------|
---------------------------------|---------------------------|
--2--4--------2--2--4----2----2--|--2--4--------2--2--4------|
---------------------------------|---------------------------|
---------------------------------|---------------------------|


                                                                                
-----------------------|---------------------------|---------------------------|
-----------------------|---------------------------|---------------------------|
--2--4--------2--2--4--|---------------------------|---------------------------|
-----------------------|--2------------------------|--2------------------------|
-----------------------|---------------------------|---------------------------|


                                                        
---------------------------|---------------------------|
---------------------------|---------------------------|
---------------------------|---------------------------|
--1------------------------|--------1------------------|
---------------------------|---------------------------|


                                                              
---------------------------|---------------------------------|
---------------------------|---------------------------------|
--2--4--------2--2--4------|--2--4--------2--2--4----2----2--|
---------------------------|---------------------------------|
---------------------------|---------------------------------|


                                                                  
---------------------------|-------------------------------------|
---------------------------|-------------------------------------|
--2--4--------2--2--4------|--2--4--------2--2--4----------------|
---------------------------|-------------------------2-0-2-3-2-0-|
---------------------------|-------------------------------------|


                                                              
---------------------------|---------------------------------|
---------------------------|---------------------------------|
--2--4--------2--2--4------|--2--4--------2--2--4----2----2--|
---------------------------|---------------------------------|
---------------------------|---------------------------------|


                                                                                
---------------------------|-----------------------|---------------------------|
---------------------------|-----------------------|---------------------------|
--2--4--------2--2--4------|--2--4--------2--2--4--|---------------------------|
---------------------------|-----------------------|--2------------------------|
---------------------------|-----------------------|---------------------------|


                                                                           
---------------------------|-----------------------|----------------------|
---------------------------|-----------------------|----------------------|
---------------------------|-----------------------|----------------------|
--2------------------------|-----------------------|----------------------|
---------------------------|--4--------------------|----------------------|


                                                                       
-----------------------|----------------------|-----------------------|
-----------------------|----------------------|-----------------------|
-----------------------|----------------------|-----------------------|
--3--------------------|----------------------|-----------------------|
-----------------------|----------------------|--4--------------------|


                                                                      
----------------------|-----------------------|----------------------|
----------------------|-----------------------|----------------------|
----------------------|-----------------------|----------------------|
----------------------|--3--------------------|----------------------|
----------------------|-----------------------|----------------------|


                                                              
---------------------------|---------------------------------|
---------------------------|---------------------------------|
--4--6--------4--4--6------|--4--6--------4--4--6----6----6--|
---------------------------|---------------------------------|
---------------------------|---------------------------------|


                                                              
---------------------------|---------------------------------|
---------------------------|---------------------------------|
---------------------------|---------------------------------|
--1--3--------1--1--3------|--1--3--------1--1--3----3----3--|
---------------------------|---------------------------------|


                                                              
---------------------------|---------------------------------|
---------------------------|---------------------------------|
--4--6--------4--4--6------|--4--6--------4--4--6----6----6--|
---------------------------|---------------------------------|
---------------------------|---------------------------------|


                                                              
---------------------------|---------------------------------|
---------------------------|---------------------------------|
---------------------------|---------------------------------|
--1--3--------1--1--3------|--1--3--------1--1--3----3----3--|
---------------------------|---------------------------------|


                                                              
---------------------------|---------------------------------|
---------------------------|---------------------------------|
--5--7--------5--5--7------|--5--7--------5--5--7----7----7--|
---------------------------|---------------------------------|
---------------------------|---------------------------------|


                                                              
---------------------------|---------------------------------|
---------------------------|---------------------------------|
---------------------------|---------------------------------|
--2--4--------2--2--4------|--2--4--------2--2--4----4----4--|
---------------------------|---------------------------------|


                                                              
---------------------------|---------------------------------|
---------------------------|---------------------------------|
--5--7--------5--5--7------|--5--7--------5--5--7----7----7--|
---------------------------|---------------------------------|
---------------------------|---------------------------------|


                                                                         
---------------------------|--------------------------------------------|
---------------------------|-----------------6--4--2--4--2--1--2--1-----|
---------------------------|-----------------------------------------4--|
--2--4--------2--2--4------|--2--4--------2-----------------------------|
---------------------------|--------------------------------------------|


                                                              
------------------------------|------------------------------|
------------------------------|------------------------------|
--2---2---2--2-2-2-2--2--2--2-|--2---2---2--2-2-2-2--2--2--2-|
------------------------------|------------------------------|
------------------------------|------------------------------|


                                                              
------------------------------|------------------------------|
------------------------------|------------------------------|
--4---4---4--4-4-4-4--4--4--4-|--4---4---4--4-4-4-4--4--4--4-|
------------------------------|------------------------------|
------------------------------|------------------------------|


                                                                        
----------------------------|-----------------------|------------------|
----------------------------|-----------------------|------------------|
--5-5-5-5---5-5-5-5--5--5---|--7---7---7--7-7-------|------------------|
----------------------------|-----------------------|------------------|
----------------------------|-----------------------|------------------|


                                                                             
------------------|------------------|------------------|-------------------|
------------------|------------------|------------------|-------------------|
------------------|------------------|------------------|-------------------|
------------------|------------------|------------------|--2----------------|
------------------|------------------|------------------|-------------------|


                                                               
----------------------|------------------|--------------------|
--5---4---------------|------------------|------------------4-|
----------------------|------------------|--------------------|
--------------------2-|------------------|--------------------|
----------------------|------------------|--------------------|


                                          
-----------------------------------------|
---------------------------------------5-|
-----------------------------------------|
---2--2--2--2--2--2-0-2-3-2-0-2--2--2----|
-----------------------------------------|


                                          
-----------------------------------------|
------4----------------------------------|
------------------------------5--5--4--3-|
---2-----2--2--2--2-0-2-3-2-0------------|
-----------------------------------------|


                                          
-----------------------------------------|
-----------------------------------------|
-----------------------------------------|
---2--2--2--2--2--2-0-2-3-2-0-2--2--2--2-|
-----------------------------------------|


                                              
---------------------------------------------|
-------------------------------------------4-|
---------1---5-----4--1-2-1-2-1-2------------|
---0-2-3---3----2-----------------3--2--0----|
---------------------------------------------|


                                          
-----------------------------------------|
---------------------------------------5-|
-----------------------------------------|
---2--2--2--2--2--2-0-2-3-2-0-2--2--2----|
-----------------------------------------|


                                          
-----------------------------------------|
------4----------------------------------|
------------------------------5--5--4--3-|
---2-----2--2--2--2-0-2-3-2-0------------|
-----------------------------------------|


                                          
-----------------------------------------|
-----------------------------------------|
-----------------------------------------|
---2--2--2--2--2--2-0-2-3-2-0-2--2--2--2-|
-----------------------------------------|


                                                                            
---------------------------------------------|-----------------------------|
-------------------------------------------4-|------------------------5----|
---------1---5-----4--1-2-1-2-1-2------------|-----------------------------|
---0-2-3---3----2-----------------3--2--0----|----2--2--2--0-2-3-0-2-----2-|
---------------------------------------------|-----------------------------|


                                                            
-----------------------------|-----------------------------|
----4-------------0----------|-----------------------------|
------------------------4----|----4--3-----3---------------|
-------0-2-3-0-2-----2-----2-|----------2-----2--0-2-3-0-2-|
-----------------------------|-----------------------------|


                                                              
-------------------------------|-----------------------------|
-----------------------------4-|------------------------5----|
------------1------------------|-----------------------------|
---0-3--0-0----0-0-3--0-0-0----|----2--2--2--0-2-3-0-2-----2-|
-------------------------------|-----------------------------|


                                                            
-----------------------------|-----------------------------|
----4------------------------|-----------------------------|
------------------5-----4----|----4--3-----3---------------|
-------0-2-3-0-2-----2-----2-|----------2-----2--0-2-3-0-2-|
-----------------------------|-----------------------------|


                                                            
-------------------------------|---------------------------|
-------------------------------|---------------------------|
------------1----------------5-|---5-5----5-5-5--5-5-5-5-4-|
---0-3--0-0----0-0-3--0-0-0----|---------------------------|
-------------------------------|---------------------------|


                                                        
---------------------------|---------------------------|
---------------------------|---------------------------|
---4-4----4-4-4--4-4-4-4-5-|---5-5----5-5-5--5-5-5-5-4-|
---------------------------|---------------------------|
---------------------------|---------------------------|


                                                        
---------------------------|---------------------------|
-----------------2-2-2-2-3-|---3-3----3-3-3--3-3-3-3-2-|
---4-4----4-4-4------------|---------------------------|
---------------------------|---------------------------|
---------------------------|---------------------------|


                                                                           
---------------------------|---------------------------|------------------|
---2-2----2-2-2--2-2-2-2-3-|---3-3----3-3-3--3-3-3-3---|------------------|
---------------------------|-------------------------3-|------------------|
---------------------------|---------------------------|------------------|
---------------------------|---------------------------|------------------|


                                                               
--------------------|-----------------------------------------|
------------------4-|---------------------------------------5-|
--------------------|-----------------------------------------|
--------------------|---2--2--2--2--2--2-0-2-3-2-0-2--2--2----|
--------------------|-----------------------------------------|


                                          
-----------------------------------------|
------4----------------------------------|
------------------------------5--5--4--3-|
---2-----2--2--2--2-0-2-3-2-0------------|
-----------------------------------------|


                                          
-----------------------------------------|
-----------------------------------------|
-----------------------------------------|
---2--2--2--2--2--2-0-2-3-2-0-2--2--2--2-|
-----------------------------------------|


                                              
---------------------------------------------|
-------------------------------------------4-|
---------1---5-----4--1-2-1-2-1-2------------|
---0-2-3---3----2-----------------3--2--0----|
---------------------------------------------|


                                          
-----------------------------------------|
---------------------------------------5-|
-----------------------------------------|
---2--2--2--2--2--2-0-2-3-2-0-2--2--2----|
-----------------------------------------|


                                          
-----------------------------------------|
------4----------------------------------|
------------------------------5--5--4--3-|
---2-----2--2--2--2-0-2-3-2-0------------|
-----------------------------------------|


                                          
-----------------------------------------|
-----------------------------------------|
-----------------------------------------|
---2--2--2--2--2--2-0-2-3-2-0-2--2--2--2-|
-----------------------------------------|


                                                                            
---------------------------------------------|-----------------------------|
-------------------------------------------4-|------------------------5----|
---------1---5-----4--1-2-1-2-1-2------------|-----------------------------|
---0-2-3---3----2-----------------3--2--0----|----2--2--2--0-2-3-0-2-----2-|
---------------------------------------------|-----------------------------|


                                                            
-----------------------------|-----------------------------|
----4------------------------|-----------------------------|
------------------5-----4----|----4--3-----3---------------|
-------0-2-3-0-2-----2-----2-|----------2-----2--0-2-3-0-2-|
-----------------------------|-----------------------------|


                                                              
-------------------------------|-----------------------------|
-----------------------------4-|------------------------5----|
------------1------------------|-----------------------------|
---0-3--0-0----0-0-3--0-0-0----|----2--2--2--0-2-3-0-2-----2-|
-------------------------------|-----------------------------|


                                                            
-----------------------------|-----------------------------|
----4------------------------|-----------------------------|
------------------5-----4----|----4--3-----3---------------|
-------0-2-3-0-2-----2-----2-|----------2-----2--0-2-3-0-2-|
-----------------------------|-----------------------------|


                                                            
-------------------------------|---------------------------|
-------------------------------|---------------------------|
------------1----------------5-|---5-5----5-5-5--5-5-5-5-4-|
---0-3--0-0----0-0-3--0-0-0----|---------------------------|
-------------------------------|---------------------------|


                                                        
---------------------------|---------------------------|
---------------------------|---------------------------|
---4-4----4-4-4--4-4-4-4-5-|---5-5----5-5-5--5-5-5-5-4-|
---------------------------|---------------------------|
---------------------------|---------------------------|


                                                        
---------------------------|---------------------------|
-----------------2-2-2-2-3-|---3-3----3-3-3--3-3-3-3-2-|
---4-4----4-4-4------------|---------------------------|
---------------------------|---------------------------|
---------------------------|---------------------------|


                                                                             
---------------------------|---------------------------|--------------------|
---2-2----2-2-2--2-2-2-2-3-|---3-3----3-3-3--3-3-3-3---|--------------------|
---------------------------|-------------------------3-|------------------7-|
---------------------------|---------------------------|--------------------|
---------------------------|---------------------------|--------------------|


                                                                                
---------------------|-----------|
---------------------|-----------|
----------6--------5-|-----3-----|
---------------------|-----------|
---------------------|-----------|
                                                                             
------------------------------------------------|---------------------------|
------------------------------------------------|---------------------------|
----5----5--5----5------5--5----5------5--------|----------7--6--5----------|
----------------------------------------------3-|----6--5-----------6--2--3-|
------------------------------------------------|---------------------------|


                                                        
---------------------------|---------------------------|
-------------5--4----------|---------------------------|
----------5--------6-------|----------7--6--5----------|
----6--5--------------5--3-|----6--5-----------6--2--3-|
---------------------------|---------------------------|


                                                        
---------------------------|---------------------------|
-------------5--4----------|---------------------------|
----------5--------6-------|----------6--5--4----------|
----6--5--------------5--2-|----5--4-----------6--1--2-|
---------------------------|---------------------------|


                                                        
---------------------------|---------------------------|
-------------4--3----------|---------------------------|
----------4--------5-------|----------6--5--4----------|
----5--4--------------4--2-|----5--4-----------5--1--2-|
---------------------------|---------------------------|


                                                             
---------------------------|--------------------------------|
-------------4--3----------|--------------------------------|
----------4--------5-------|--------------------------------|
----5--4--------------4--3-|--------------------------------|
---------------------------|--------------------------------|
--------------|--------------|------------------------|-------------------|
--------------|--------------|------------------------|-------------------|
--------------|--------------|----------------------5-|-------------------|
--------------|--------------|------------------------|-------------------|
--------------|--------------|------------------------|-------------------|


                                                                     
----------------------|-----------------------|---------------------|
----------------------|-----------------------|---------------------|
------4--4--5---------|------4--4--5----7-----|---------------------|
----------------------|-----------------------|------2--------2-----|
----------------------|-----------------------|---------------------|


                                                                             
---------------------|----------------------|-------------------------------|
---------------------|----------------------|-------------------------------|
---------------------|--------------------5-|------4--3--2--1----1--------5-|
------2--------2-----|------2--------2------|-------------------------------|
---------------------|----------------------|-------------------------------|


                                                                
-------------------------------|-------------------------------|
-------------------------------|-----------------------------0-|
------4--3--2--1----1--------5-|------4--3--2--1----1--------5-|
-------------------------------|-------------------------------|
-------------------------------|-------------------------------|


                                                                      
---------------------------|------------------|----------------------|
---------------------------|------------------|----------------------|
----------4----3----2----1-|------------------|----------------------|
---------------------------|------------------|----------5--4--3-----|
---------------------------|------------------|----------------------|
------------------|------------------|----------------------------|
------------------|------------------|----------------------------|
------------------|------------------|----------------------------|
------------------|------------------|--------------------------3-|
------------------|------------------|----------------------------|


                                                                
-------------------------------|-------------------------------|
-------------------------------|-------------------------------|
-------------------------------|-----------------------------1-|
----3-3-3--3-3-3--3-3-3--3-3-3-|----3-3-3--3-3-5--5-5-5--5-5---|
-------------------------------|-------------------------------|


                                                              
-------------------------------|-----------------------------|
-------------------------------|----------------------0----1-|
----1-1-1--1-1-----------------|----------------------5------|
---------------1--1-1-1--1-1-3-|----3-3-3--3-3-3--3-3--------|
-------------------------------|-----------------------------|


                                                                
-------------------------------|-------------------------------|
----1-1-1--1-1---------------1-|----1-1-1--1-1-----------------|
---------------1--1-1-1--1-1---|---------------1--1-1-1--1-1---|
-------------------------------|-----------------------------4-|
-------------------------------|-------------------------------|


                                                              
-------------------------------|-----------------------------|
-----------------------------0-|----0-0-0--0-0-0--0-0-0------|
-------------------------------|-----------------------------|
----4-4-4--4-4-4--4-4-4--4-4---|---------------------------3-|
-------------------------------|-----------------------------|


                                                                
-------------------------------|-------------------------------|
-------------------------------|-------------------------------|
-------------------------------|---------------0--0-0-0--0-0-1-|
----3-3-3--3-3-3--3-3-3--3-3-3-|----3-3-3--3-3-----------------|
-------------------------------|-------------------------------|


                                                              
-------------------------------|-----------------------------|
-------------------------------|----------------------0----1-|
----1-1-1--1-1-----------------|-----------------------------|
---------------1--1-1-1--1-1-3-|----3-3-3--3-3-3--3-3--------|
-------------------------------|-----------------------------|


                                                                
-------------------------------|-------------------------------|
----1-1-1--1-1---------------1-|----1-1-1--1-1-----------------|
---------------1--1-1-1--1-1---|---------------1--1-1-1--1-1---|
-------------------------------|-----------------------------4-|
-------------------------------|-------------------------------|


                                                     
-------------------------------|--------------------|
-----------------------------0-|--------------------|
-------------------------------|--------------------|
----4-4-4--4-4-4--4-4-4--4-4---|------------------1-|
-------------------------------|--------------------|


                                                                
-------------------------------|-------------------------------|
-------------------------------|-------------------------------|
-------------------------------|-------------------------------|
---1--1-1--1-1--1-1--1-1-1-1-1-|---1--1-1--1-1--1-1--1-1-1-1-1-|
-------------------------------|-------------------------------|


                                                                
-------------------------------|-------------------------------|
-------------------------------|-------------------------------|
-------------------------------|-------------------------------|
---1--1-1--1-1--1-1--1-1-1-1-1-|---1--1-1--1-1--1-1--1-1-1-1-1-|
-------------------------------|-------------------------------|


                                                                
-------------------------------|-------------------------------|
-------------------------------|-------------------------------|
-------------------------------|-------------------------------|
---1--1-1--1-1--1-1--1-1-1-1-1-|---1--1-1--1-1--1-1--1-1-1-1-1-|
-------------------------------|-------------------------------|


                                                            
-------------------------------|---------------------------|
-------------------------------|---------------------------|
-------------------------------|--------------2--2---------|
---1--1-1--1-1--1-1--1-1-1-1-1-|------1-1--1---------2---1-|
-------------------------------|---------------------------|


                                                                
-------------------------------|-------------------------------|
-------------------------------|-------------------------------|
-------------------------------|-------------------------------|
---1--1-1--1-1--1-1--1-1-1-1-1-|---1--1-1--1-1--1-1--1-1-1-1-1-|
-------------------------------|-------------------------------|


                                                                
-------------------------------|-------------------------------|
-------------------------------|-------------------------------|
-------------------------------|-------------------------------|
---1--1-1--1-1--1-1--1-1-1-1-1-|---1--1-1--1-1--1-1--1-1-1-1-1-|
-------------------------------|-------------------------------|


                                                                
-------------------------------|-------------------------------|
-------------------------------|-------------------------------|
-------------------------------|-----------------------------4-|
---1--1-1--1-1--1-1--1-1-1-1-1-|---1--1-1--1-1--1-1--1-1-1-1---|
-------------------------------|-------------------------------|


                                                                 
---------------------|--------------------|---------------------|
---------------------|--------------------|---------------------|
--------4------4-----|------------------3-|---------------3-----|
---------------------|--------------------|--------3------------|
---------------------|--------------------|---------------------|


                                                     
--------------------|-------------------------------|
--------------------|-------------------------------|
--------------------|-------------------------------|
------------------1-|----1-1-1--1-1-1--1-1-1--1-1-1-|
--------------------|-------------------------------|


                                                                
-------------------------------|-------------------------------|
-------------------------------|-------------------------------|
-------------------------------|-------------------------------|
----1-1-1--1-1-3--3-3-3--3-3-4-|----4-4-4--4-4---------------1-|
-------------------------------|---------------4--4-4-4--4-4---|


                                                              
-----------------------------|-------------------------------|
-----------------------------|-------------------------------|
----------------------3----4-|----4-4-4--4-4---------------4-|
----1-1-1--1-1-1--1-1--------|---------------4--4-4-4--4-4---|
-----------------------------|-------------------------------|


                                                                
-------------------------------|-------------------------------|
-------------------------------|-------------------------------|
----4-4-4--4-4-----------------|-----------------------------3-|
---------------4--4-4-4--4-4-2-|----2-2-2--2-2-2--2-2-2--2-2---|
-------------------------------|-------------------------------|


                                                              
-----------------------------|-------------------------------|
-----------------------------|-------------------------------|
----3-3-3--3-3-3--3-3-3------|-------------------------------|
---------------------------1-|----1-1-1--1-1-1--1-1-1--1-1-1-|
-----------------------------|-------------------------------|


                                                                
-------------------------------|-------------------------------|
-------------------------------|-------------------------------|
-------------------------------|-------------------------------|
----1-1-1--1-1-3--3-3-3--3-3-4-|----4-4-4--4-4---------------1-|
-------------------------------|---------------4--4-4-4--4-4---|


                                                              
-----------------------------|-------------------------------|
-----------------------------|-------------------------------|
----------------------3----4-|----4-4-4--4-4---------------4-|
----1-1-1--1-1-1--1-1--------|---------------4--4-4-4--4-4---|
-----------------------------|-------------------------------|


                                                                
-------------------------------|-------------------------------|
-------------------------------|-------------------------------|
----4-4-4--4-4-----------------|-----------------------------3-|
---------------4--4-4-4--4-4-2-|----2-2-2--2-2-2--2-2-2--2-2---|
-------------------------------|-------------------------------|


                                                     
--------------------|-------------------------------|
--------------------|-------------------------------|
------------------4-|----4-4-4--4-4-4--4-4-4--4-4-4-|
--------------------|-------------------------------|
--------------------|-------------------------------|


                                                                
-------------------------------|-------------------------------|
---------------1--1-1-1--1-1-2-|----2-2-2--2-2-----------------|
----4-4-4--4-4-----------------|---------------2--2-2-2--2-2-4-|
-------------------------------|-------------------------------|
-------------------------------|-------------------------------|


                                                              
----------------------1----2-|----2-2-2--2-2---------------2-|
-----------------------------|---------------2--2-2-2--2-2---|
----4-4-4--4-4-4--4-4--------|-------------------------------|
-----------------------------|-------------------------------|
-----------------------------|-------------------------------|


                                                                
----2-2-2--2-2-----------------|-------------------------------|
---------------2--2-2-2--2-2-0-|----0-0-0--0-0-0--0-0-0--0-0---|
-------------------------------|-----------------------------4-|
-------------------------------|-------------------------------|
-------------------------------|-------------------------------|


                                                                    
-----------------------------------|-------------------------------|
-----------------------------------|-------------------------------|
---4-4-4-4-4-4-4-4-4-4-4-4-4-4-4---|-------------------------------|
---------------------------------1-|---1--1-1--1-1--1-1--1-1-1-1-1-|
-----------------------------------|-------------------------------|


                                                                
-------------------------------|-------------------------------|
-------------------------------|-------------------------------|
-------------------------------|-------------------------------|
---1--1-1--1-1--1-1--1-1-1-1-1-|---1--1-1--1-1--1-1--1-1-1-1-1-|
-------------------------------|-------------------------------|


                                                                
-------------------------------|-------------------------------|
-------------------------------|-------------------------------|
-------------------------------|-------------------------------|
---1--1-1--1-1--1-1--1-1-1-1-1-|---1--1-1--1-1--1-1--1-1-1-1-1-|
-------------------------------|-------------------------------|


                                                                
-------------------------------|-------------------------------|
-------------------------------|-------------------------------|
-------------------------------|-------------------------------|
---1--1-1--1-1--1-1--1-1-1-1-1-|---1--1-1--1-1--1-1--1-1-1-1-1-|
-------------------------------|-------------------------------|


                                                            
---------------------------|-------------------------------|
---------------------------|-------------------------------|
--------------2--2---------|-------------------------------|
------1-1--1---------2---1-|---1--1-1--1-1--1-1--1-1-1-1-1-|
---------------------------|-------------------------------|


                                                                
-------------------------------|-------------------------------|
-------------------------------|-------------------------------|
-------------------------------|-------------------------------|
---1--1-1--1-1--1-1--1-1-1-1-1-|---1--1-1--1-1--1-1--1-1-1-1-1-|
-------------------------------|-------------------------------|


                                                                
-------------------------------|-------------------------------|
-------------------------------|-------------------------------|
-------------------------------|-------------------------------|
---1--1-1--1-1--1-1--1-1-1-1-1-|---1--1-1--1-1--1-1--1-1-1-1-1-|
-------------------------------|-------------------------------|


                                                                               
-------------------------------|---------------------|------------------------|
-------------------------------|---------------------|----------3--1-----1----|
-----------------------------4-|--------4------4-----|----------------4-----3-|
---1--1-1--1-1--1-1--1-1-1-1---|---------------------|------------------------|
-------------------------------|---------------------|------------------------|


                                                                           
---------------------|--------------------|-------------------------------|
---------------------|--------------------|-------------------------------|
---------------3-----|--------------------|-------------------------------|
--------3------------|------------------1-|----1-1-1--1-1-1--1-1-1--1-1-1-|
---------------------|--------------------|-------------------------------|


                                                                
-------------------------------|-------------------------------|
-------------------------------|-------------------------------|
-------------------------------|-------------------------------|
----1-1-1--1-1-3--3-3-3--3-3-4-|----4-4-4--4-4---------------1-|
-------------------------------|---------------4--4-4-4--4-4---|


                                                              
-----------------------------|-------------------------------|
-----------------------------|-------------------------------|
----------------------3----4-|----4-4-4--4-4---------------4-|
----1-1-1--1-1-1--1-1--------|---------------4--4-4-4--4-4---|
-----------------------------|-------------------------------|


                                                                
-------------------------------|-------------------------------|
-------------------------------|-------------------------------|
----4-4-4--4-4-----------------|-----------------------------3-|
---------------4--4-4-4--4-4-2-|----2-2-2--2-2-2--2-2-2--2-2---|
-------------------------------|-------------------------------|


                                                              
-----------------------------|-------------------------------|
-----------------------------|-------------------------------|
----3-3-3--3-3-3--3-3-3------|-------------------------------|
---------------------------1-|----1-1-1--1-1-1--1-1-1--1-1-1-|
-----------------------------|-------------------------------|


                                                                
-------------------------------|-------------------------------|
-------------------------------|-------------------------------|
-------------------------------|-------------------------------|
----1-1-1--1-1-3--3-3-3--3-3-4-|----4-4-4--4-4---------------1-|
-------------------------------|---------------4--4-4-4--4-4---|


                                                              
-----------------------------|-------------------------------|
-----------------------------|-------------------------------|
----------------------3----4-|----4-4-4--4-4---------------4-|
----1-1-1--1-1-1--1-1--------|---------------4--4-4-4--4-4---|
-----------------------------|-------------------------------|


                                                                
-------------------------------|-------------------------------|
-------------------------------|-------------------------------|
----4-4-4--4-4-----------------|-------------------------------|
---------------4--4-4-4--4-4-2-|----2-2-2--2-2-2--2-2-2--2-2-2-|
-------------------------------|-------------------------------|


                                                                
-------------------------------|-------------------------------|
-------------------------------|-------------------------------|
-------------------------------|-------------------------------|
----2-2-2--2-2-2--2-2-2--2-2-2-|----2-2-2--2-2-2--2-2-2--2-2-2-|
-------------------------------|-------------------------------|


                                                                         
-------------------------------|------------------|---------------------|
-------------------------------|------------------|--------2------------|
-----------------------------2-|------------------|-------------------2-|
----2-2-2--2-2-2--2-2-2--2-2---|------------------|---------------------|
-------------------------------|------------------|---------------------|


                                                                
-------------------|------------------------|------------------|
-------------------|------------------------|------------------|
-------------------|----------------------2-|------------------|
-------------------|------------------------|------------------|
-------------------|------------------------|------------------|


                                                                       
---------------------|---------------------|--------------------------|
--------2------------|---------------------|------------------------0-|
-------------------2-|----2--2-------------|------------------2--4----|
---------------------|---------------------|--------------------------|
---------------------|---------------------|--------------------------|


                                                                              
---------------------------|------------------------|------------------------|
---------------0----2----3-|------------------------|--------------0---------|
--------0------------------|--------------3---------|------------------------|
---------------------------|------------------------|------------------------|
---------------------------|------------------------|------------------------|
Comments