Symphony X - Sea Of Lies Chords & Tabs

 

Sea Of Lies Chords & Tabs

Symphony X Chords & Tabs

Version: 2 Type: Bass Tab 0 ratings
1 star 2 stars 3 stars 4 stars 5 stars
comments

Sea Of Lies Bass Tab

   
  "Sea of Lies"
  From the album The Divine Wings of Tragedy by Symphony X

  TAB by: Linus Abrahamson
  E-mail: mentalsjuk@yahoo.com

  Tuned down one whole step: 
  E-D, A-G, D-C, and G-F



     Intro
  F|----------------------------|---------------3-7-6-7---------|
  C|*------7p5----8p5-------7p5-|-7p5----8p5------------5-8-7-8-|
  G|*0--0------0------0--0------|-----0------0------------------|
  D|----------------------------|-------------------------------|

  F|----------------------------|-------------------------------|
  C|-------7p5----8p5-------7p5-|-7p5----5p3----1-------1------*|
  G|-0--0------0------0--0------|-----0------0-----------------*|
  D|----------------------------|-------------------------------|

  F|---------------------------------|-----------------3-7-6-7---------|
  C|---------7p5-----8p5---------7p5-|-7p5-----8p5-------------5-8-7-8-|
  G|-0-0-0-0-----0-0-----0-0-0-0-----|-----0-0-----0-0-----------------|
  D|---------------------------------|---------------------------------|

  F|---------------------------------|---------------------------------|
  C|---------7p5-----8p5---------7p5-|-7p5-----5p3-----1-------1-------|
  G|-0-0-0-0-----0-0-----0-0-0-0-----|-----0-0-----0-0-----------------|
  D|---------------------------------|---------------------------------|

  F|---------------------------------|-----------------3-7-6-7---------|
  C|---------7p5-----8p5---------7p5-|-7p5-----8p5-------------5-8-7-8-|
  G|-0-0-0-0-----0-0-----0-0-0-0-----|-----0-0-----0-0-----------------|
  D|---------------------------------|---------------------------------|

  F|---------------------------------|-------------------------|-------------------------|
  C|---------7p5-----8p5-------------|-8-----7-----5-----------|-------------5-----7-----|
  G|-0-0-0-0-----0-0-----0-0-0-0-0-0-|-------------------7-----|-4-----5-----------------|
  D|---------------------------------|-------------------------|-------------------------|

  F|-----------------------------------|-6h9p7h9-12p9p7h9-14p9p7p6h7-----|
  C|------------------5h8p7h8-12p8p7h8-|---------------------------------|
  G|-5h8p7h8-12p8p7h8------------------|---------------------------------|
  D|---------T----------------T--------|---------T--------T--------------|

  F|-14p12-14p12p10p9-12p10-12p10p9p7-10p9-10p9p7p6-9p7-9p7p6--|
  C|-T-----T----------T-----T---------T----T--------T---T------|
  G|-----------------------------------------------------------|
  D|-----------------------------------------------------------|



     Verse 1
  F|-------------------------|--------------------------|
  C|*------------------------|--------------------------|
  G|*------------------------|--------------------------|
  D|-2--2--0--2-----2--0--2--|---2-----2--0-2-2--0-2-2--|

  F|------------------------|------------------------|
  C|------------------------|-----------------------*|
  G|------------------------|-----------------------*|
  D|---2--0--2-----2--0--3--|---2-----2-----0-----0--|
  
  F|-------------------------|--------------------------|
  C|-------------------------|--------------------------|
  G|-------------------------|--------------------------|
  D|-2--2--0--2-----2--0--2--|---2-----2--0-2-2--0-2-2--|

  F|------------------------|------------------------|
  C|------------------------|------------------------|
  G|------------------------|------------------------|
  D|---2--0--2-----2--0--3--|---2-----2-----0-----0--|

  F|-------------------------|--------------------------|
  C|-------------------------|--------------------------|
  G|-------------------------|--------------------------|
  D|-2--2--0--2-----2--0--2--|---2-----2--0-2-2--0-2-2--|

  F|------------------------|-------------------------------|
  C|------------------------|-------------------------------|
  G|------------------------|-----2-4-2-------2-4-2---4-----|
  D|---2--0--2-----2--0--2--|-2-5-------5-2-5-------5-------|



     Bridge 1
  F|-----------------------------------------|-----------------------------------------|
  C|---------8-8-----7-7---------------------|---------8-8-----7-7---------------------|
  G|-5-5-5-5-----5-5-----5-5-5-5-5-5-5-5-5-5-|-5-5-5-5-----5-5-----5-5-5-5-5-5-5-5-5-5-|
  D|-----------------------------------------|-----------------------------------------|

  F|-----------------------------------------|-----------------------------------------|  
  C|-----------------------------------------|-----------------------------------------|
  G|---------4-4-----3-3---------------------|---------4-4-----3-3---------------------|
  D|-1-1-1-1-----1-1-----1-1-1-1-1-1-1-1-1-1-|-1-1-1-1-----1-1-----1-1-1-1-1-1-1-1-1-1-|

  

     Pre-Chorus 1
  F|----------------------------------------|---------------3--------------------1-----|
  C|-------------------------------3--1-----|------------1------1-------------1-----1--|
  G|-1----------3------------------------3--|-4----------------------------------------|
  D|--------------------1-------------------|----------------------4-------------------|

  F|-------------------|-------------------|
  C|----------4--------|----------2--------|
  G|-------4--------4--|-------2--------2--|
  D|-2-----------------|-0-----------------|



     Chorus 1
  F|---------------------------------|-----------------3-7-6-7---------|
  C|*--------7p5-----8p5---------7p5-|-7p5-----8p5-------------5-8-7-8-|
  G|*0-0-0-0-----0-0-----0-0-0-0-----|-----0-0-----0-0-----------------|
  D|---------------------------------|---------------------------------|

  F|---------------------------------|---------------------------------|
  C|---------7p5-----8p5---------7p5-|-7p5-----5p3-----1-------1------*|
  G|-0-0-0-0-----0-0-----0-0-0-0-----|-----0-0-----0-0----------------*|
  D|---------------------------------|---------------------------------|

  F|-------------------------------------|
  C|---------1------1--------------------|
  G|-0-0-0-0-----------------------------|
  D|-------------------------------------|



     Verse 2
  F|-------------------------|--------------------------|
  C|-------------------------|--------------------------|
  G|-------------------------|--------------------------|
  D|-2--2--0--2-----2--0--2--|---2-----2--0-2-2--0-2-2--|

  F|------------------------|--------------------------|
  C|------------------------|--------------------------|
  G|------------------------|--------------------------|
  D|---2--0--2-----2--0--3--|---2--3-3-2--2-2-0-----0--|

  F|-------------------------|--------------------------|
  C|-------------------------|--------------------------|
  G|-------------------------|--------------------------|
  D|-2--2--0--2-----2--0--2--|---2-----2--0-2-2--0-2-2--|

  F|------------------------|----------------4---------|
  C|------------------------|----4--7--4--6-----6------|
  G|------------------------|-4------------------------|
  D|---2--0--2-----2--0--2--|--------------------------|

  F|-------------------------|--------------------------|
  C|-------------------------|--------------------------|
  G|-------------------------|--------------------------|
  D|-2--2--0--2-----2--0--2--|---2-----2--0-2-2--0-2-2--|

  F|------------------------|------------------------|
  C|------------------------|------------------------|
  G|------------------------|------------------------|
  D|---2--0--2-----2--0--3--|---2-----2-----0-----0--|

  F|-------------------------|------------------------|
  C|-------------------------|------------------------|
  G|-------------------------|---------------------5--|
  D|-2--2--0--2-----2--0--2--|---2-----2--0-2-2-0-----|



     Bridge 2
  F|------------------------|------------------------|
  C|------------------------|------------------------|
  G|(5)---------------------|------------------------|
  D|------------------------|------------------------|

  F|------------------------|------------------------|
  C|------------------------|------------------------|
  G|------------------------|------------------------|
  D|-1----------------------|------------------------|


[ Tab from: http://www.guitartabs.cc/tabs/s/symphony_x/sea_of_lies_btab_ver_2.html ]
     Pre-Chorus 1
  F|----------------------------------------|---------------3--------------------1-----|
  C|-------------------------------3--1-----|------------1------1-------------1-----1--|
  G|-1----------3------------------------3--|-4----------------------------------------|
  D|--------------------1-------------------|----------------------4-------------------|

  F|-------------------|-------------------|
  C|----------4--------|----------2--------|
  G|-------4--------4--|-------2--------2--|
  D|-2-----------------|-0-----------------|



     Chorus 2
  F|---------------------------------|-----------------3-7-6-7---------|
  C|*--------7p5-----8p5---------7p5-|-7p5-----8p5-------------5-8-7-8-|
  G|*0-0-0-0-----0-0-----0-0-0-0-----|-----0-0-----0-0-----------------|
  D|---------------------------------|---------------------------------|

  F|---------------------------------|---------------------------------|
  C|---------7p5-----8p5---------7p5-|-7p5-----5p3-----1-------1------*|
  G|-0-0-0-0-----0-0-----0-0-0-0-----|-----0-0-----0-0----------------*|
  D|---------------------------------|---------------------------------|



     Solo Rhythm
  F|---------------------------------|---------------------------------|
  C|---------------------------------|-----------------3-7-6-7---------|
  G|---------7p5-----8p5---------7p5-|-7p5-----8p5-------------5-8-7-8-|
  D|-0-0-0-0-----0-0-----0-0-0-0-----|-----0-0-----0-0-----------------|

  F|---------------------------------|---------------------------------|
  C|---------------------------------|---------------------------------|
  G|---------7p5-----8p5---------7p5-|-7p5-----5p3-----1-------1-------|
  D|-0-0-0-0-----0-0-----0-0-0-0-----|-----0-0-----0-0-----------------|

  F|---------------------------------|---------------------------------|
  C|---------------------------------|-----------------3-7-6-7---------|
  G|---------7p5-----8p5---------7p5-|-7p5-----8p3-------------5-8-7-8-|
  D|-0-0-0-0-----0-0-----0-0-0-0-----|-----0-0-----0-0-----------------|

  F|---------------------------------|-------------------------|-------------------------|
  C|---------------------------------|-8-----7-----5-----------|-------------5-----7-----|
  G|---------7p5------8p5------------|-------------------7-----|-4-----5-----------------|
  D|-0-0-0-0-----0-0-----0-0-0-0-0-0-|-------------------------|-------------------------|

  F|---------------------------5-7-5-|-------------5------------------|
  C|-8-7-5---------------5-7-8-------|-8-7-5---5-7---8-7-5------------|
  G|-------8-7-5-4-5-7-8-------------|-------8-------------8-7-5------|
  D|---------------------------------|--------------------------------|



     Interlude
  F|-------------------------|-------------------------|
  C|*2--------2----------2-2-|-2-------2-2-2-----------|
  G|*------------------------|-------------------5-----|
  D|-------------------------|-------------------------|

  F|-------------------------|-------------------------|
  C|-2--------2----------2-2-|-2-------2-2-2--4--5-----|
  G|-------------------------|-------------------------|
  D|-------------------------|-------------------------|

  F|-------------------------|-------------------------|
  C|-2--------2----------2-2-|-2-------2-2-2-----------|
  G|-------------------------|-------------------5-----|
  D|-------------------------|-------------------------|

  F|-------------------------|-------------------------|
  C|-2--------2----------2-2-|-2-------2-2-2--4--5----*|
  G|-------------------------|------------------------*|
  D|-------------------------|-------------------------|

  F|---------------------------------|---------------------------------|
  C|-2-2-2-2-2-2-2-2-2-2-2-2-2-2-2-2-|-2-2-2-2-2-2-2-2-2-2-2-2-2-2-2-2-|
  G|---------------------------------|---------------------------------|
  D|---------------------------------|---------------------------------|

  F|---------------------------------|---------------------------------|
  C|---------------------------------|---------------------------------|
  G|-5-5-5-5-5-5-5-5-5-5-5-5-5-5-5-5-|-5-5-5-5-5-5-5-5-5-5-5-5-5-5-5-5-|
  D|---------------------------------|---------------------------------|

  F|---------------------------------|---------------------------------|
  C|-2-2-2-2-2-2-2-2-2-2-2-2-2-2-2-2-|-2-2-2-2-2-2-2-2-2-2-2-2-2-2-2-2-|
  G|---------------------------------|---------------------------------|
  D|---------------------------------|---------------------------------|

  F|---------------------------------|---------------------------------|
  C|---------------------------------|---------------------------------|
  G|---------------------------------|---------------------------------|
  D|-4-4-4-4-4-4-4-4-4-4-4-4-4-4-4-4-|-4-4-4-4-4-4-4-4-4-4-4-4-4-4-4-4-|

  F|---------------------------------|---------------------------------|
  C|---------------------------------|---------------------------------|
  G|-4-4-4-4-4-4-4-4-4-4-4-4-4-4-4-4-|-2-2-2-2-2-2-2-2-2-2-2-2-2-2-2-2-|
  D|---------------------------------|---------------------------------|

  F|---------------------------------|---------------------------------|
  C|---------------------------------|---------------------------------|
  G|-1-1-1-1-1-1-1-1-1-1-1-1-1-1-1-1-|---------------------------------|
  D|---------------------------------|-5-5-5-5-5-5-5-5-5-5-5-5-5-5-5-5-|

  F|---------------------------------|---------6---8-------9-----------|
  C|---------------------------------|-----6---------------------------|
  G|-4-4-4-4-4-4-4-4-4-4-4-4-4-4-4-4-|-4-----------------------7---4---|
  D|---------------------------------|---------------------------------|

  F|---------------------------------|-----------------------------------|
  C|---------------------------------|-----------------9--7--5-----------|
  G|-5-5-5-5-5-5-5-5-5-5-5-5-5-5-5-5-|-5-5-5-5-5-5-5-5----------9--7--5--|
  D|---------------------------------|-----------------------------------|

  F|----------------------|----------------------|
  C|----------------------|----------------------|
  G|-7--------------------|----------------------|
  D|----------------------|-8--------------------|

  F|----------------------|----------------------|
  C|----------------------|----------------------|
  G|-5--------------------|-7--------------------|
  D|----------------------|----------------------|

  F|----------------------|----------------------|
  C|----------------------|----------------------|
  G|-7--------------------|----------------------|
  D|----------------------|-8--------------------|

  F|----------------------|----------------------|
  C|----------------------|----------------------|
  G|-5--------------------|(5)-------------------|
  D|----------------------|----------------------|



     Chorus 3
  F|---------------------------------|---------------------------------|
  C|*--------------------------------|-----------------3-7-6-7---------|
  G|*--------7p5-----8p5---------7p5-|-7p5-----5p3-------------5-8-7-8-|
  D|-0-0-0-0-----0-0-----0-0-0-0-----|-----0-0-----0-0-----------------|

  F|---------------------------------|---------------------------------|
  C|---------------------------------|--------------------------------*|
  G|---------7p5-----8p5---------7p5-|-7p5-----5p3-----1-------1------*|
  D|-0-0-0-0-----0-0-----0-0-0-0-----|-----0-0-----0-0-----------------|
  
  F|---------------------------------|---------------------------------|
  C|*--------------------------------|-----------------3-7-6-7---------|
  G|*--------7p5-----8p5---------7p5-|-7p5-----5p3-------------5-8-7-8-|
  D|-0-0-0-0-----0-0-----0-0-0-0-----|-----0-0-----0-0-----------------|

  F|---------------------------------|---------------------------------|
  C|---------------------------------|--------------------------------*|
  G|---------7p5-----8p5---------7p5-|-7p5-----5p3-----1-------1------*|
  D|-0-0-0-0-----0-0-----0-0-0-0-----|-----0-0-----0-0-----------------|



     Outro
  F|-----------------------|----------------------------------------------|
  C|-----------------------|----------------------------------------------|
  G|---------1------1------|-------------------------1------1-------------|
  D|-0-0-0-0---------------|-0-------0-------0----------------------------|

  F|-----------------------|----------------------------------------------||
  C|-----------------------|----------------------------------------------||
  G|(1)--------------------|(1)-------------------------------------------||
  D|-----------------------|----------------------------------------------||



     That's it! / Linus Abrahamson
     Please, if you find any mistakes, don't hesitate to send an e-mail and tell me about it!
     E-mail: mentalsjuk@yahoo.com

Comments