Symphony X - Inferno Unleash The Fire Chords & Tabs

 

Inferno Unleash The Fire Chords & Tabs

Symphony X Chords & Tabs

Version: 1 Type: Tab 2 ratings
1 star 2 stars 3 stars 4 stars 5 stars
comments

Inferno Unleash The Fire Tab

INTRO
This is how to play the intro without tuning your guitar differently.
It’s all played at the same tempo with no rests.
e--------------------------------------------------------
b--------------------------------------------------------
g--11--10--8--10--------------8--------------------------
d--------------------------------11--10-----11--10-------
a-----------------8--8--8--8-------------8----------13--8
e--------------------------------------------------------

e--------------------------------------------------------
b--------------------------------------------------------
g--11--10--8--10--------------8--------------------------
d--------------------------------11--10-----11--10-------
a-----------------8--8--8--8-------------8----------13--8
e--------------------------------------------------------

e-------------------------------------------------
b-------------------------------------------------
g-------------------------------------------------
d--10--8--7--------------------------------7------
a------------8--9--8--9--8--8--8--9--8--9-----9--8
e-------------------------------------------------

e-------------------------------------------------
b-------------------------------------------------
g-------------------------------------------------
d--10--8--7--------------------------------7------
a------------8--9--8--9--8--8--8--9--8--9-----9--8
e-------------------------------------------------

e--------------------------------------------------------
b--------------------------------------------------------
g--11--10--8--10--------------8--------------------------
d--------------------------------11--10-----11--10-------
a-----------------8--8--8--8-------------8----------13--8
e--------------------------------------------------------

e-------------------------------------------------------
b-------------------------------------------------------
g--11--10--8--10--------------8-------------10--8-------
d--------------------------------11--10------------11---
a-----------------8--8--8--8-------------8-------------8
e-------------------------------------------------------

e--------------------------14--13--11----------------------------
b--13--11--10--------------------------14--13--11--13--11--------
g--------------11--10--------------------------------------14--11
d----------------------13----------------------------------------
a----------------------------------------------------------------
e----------------------------------------------------------------

e---------------------------------------------------------------
b---------------------------------------------------------------
g----------11----------------------------------------------8--10
d--15--13------15--13--11--------------------------10--11-------
a--------------------------15--13--12------12--13---------------
e--------------------------------------14-----------------------
[ Tab from: http://www.guitartabs.cc/tabs/s/symphony_x/inferno_unleash_the_fire_tab.html ]
e-----------------------------------------------------------
b-----------------------------------------------------------
g--11--10--8--10-----------------------------8--------------
d-----------------------------11--10------------11--10------
a-----------------8--8--8--8----------13--8----------------8
e-----------------------------------------------------------

e-------------------------------------------------------------------------------
b-------------------------------------------13--11--10--------------------------
g--10--8---------11--10--8--10--------------------------11--10--8--11--10--8--10
d---------11--------------------------------------------------------------------
a-------------8-----------------8--8--8--8--------------------------------------
e-------------------------------------------------------------------------------

e-------------------------------------------------------
b-------------------------------------------------------
g-----------------------------8-------------10--8-------
d--------------11--10------------11--10------------11---
a--8--8--8--8----------13--8-------------8-------------8
e-------------------------------------------------------

e-----------------------------14--13--11--------------------
b-----------------------------------------14--13--11--13--11
g--11--10--8--10--------------------------------------------
d-----------------------------------------------------------
a-----------------8--8--8--8--------------------------------
e-----------------------------------------------------------

e---------------------------------------------------------
b--10-----------------------------------------------------
g------11--10--8--11--10--8--10---------------------------
d--------------------------------------------11--10-------
a--------------------------------8--8--8--8----------13--8
e---------------------------------------------------------

e-------------------------------------------------------
b-------------------------------------------------------
g--8-------------10--8---------11--10--8--10------------
d-----11--10------------11------------------------------
a-------------8-------------8-----------------8--8--8--8
e-------------------------------------------------------

e-----------------------------------------------------------------
b--13--11--10-----------------------------------------------------
g--------------11--10--8--11--10--8--10---------------------------
d----------------------------------------------------11--10-------
a----------------------------------------8--8--8--8----------13--8
e-----------------------------------------------------------------

e-------------------------------------------------------
b-------------------------------------------------------
g--8-------------10--8---------11--10--8--10------------
d-----11--10------------11------------------------------
a-------------8-------------8-----------------8--8--8--8
e-------------------------------------------------------

e--14--13--11----------------------------------------------------
b--------------14--13--11--13--11--------------------------------
g----------------------------------14--11----------11------------
d------------------------------------------15--13------15--13--11
a----------------------------------------------------------------
e----------------------------------------------------------------

e-------------------------------------
b-------------------------------------
g-------------------------------------
d-------------------------------------
a--15--13--15--13--12-----------------
e----------------------14--13--11--13~

Comments