Symphony In Peril - Whores Trophy 2 Chords & Tabs

 

Whores Trophy 2 Chords & Tabs

Symphony In Peril Chords & Tabs

Version: 1 Type: Tab 0 ratings
1 star 2 stars 3 stars 4 stars 5 stars
comments

Whores Trophy 2 Tab

   
ARTIST:SYMPHONY IN PERIL
SONG:WHORES TROPHY 2
ALBUM:WHORES TROPHY
TABBED BY: iloveibanez or my real name is John

This here is a great song and it's really simple I was very surprised why I couldn't 
it anywhere so I tabbed it I hope you like it

TUNING:high to low (D,A,F,C,G,C)
T=TAP
P=PULL
.=PALM MUTING
~=LET RING
X=DON'T PLAY THE STRING
H=HAMMER ON
guitar one
D-----------------------------------|
A-----------------------------------|
F-----------------------------------| X6
C-----------------------------------|
G-T5P0-X8-T5P1-X8-T8P1-X8-T10P1-X8--|
C-----------------------------------|
[ Tab from: http://www.guitartabs.cc/tabs/s/symphony_in_peril/whores_trophy_2_tab.html ]
guitar 2 part after two of the intro's
D--------------------------------------------------------|
A--------------------------------------------------------|
F--------------------------------------------------------| X4
C-0--00--0--00--3--33--3--33--3--33--3--33--5--55--5--55-|
G-0--00--0--00--3--33--3--33--3--33--3--33--3--33--3--33-|
C-0--00--0--00--X--XX--X--XX--3--33--3--33--3--33--3--33-|
     ..     ..     ..     ..     ..     ..     ..     ..
both guitars
D--------------------------------------------------------|
A--------------------------------------------------------|
F--------------------------------------------------------| X2
C-0--00--0--00--3--33--3--33--5--55--5--55--0--00--0--00-|
G-0--00--0--00--3--33--3--33--5--55--5--55--0--00--0--00-|
C-0--00--0--00--X--XX--X--XX--X--XX--X--XX--0--00--0--00-|
     ..     ..     ..     ..     ..     ..     ..     ..
both guitars
D--------------------------------------------------------------|
A--------------------------------------------------------------|
F--------------------------------------------------------------| X4
C-0--00--0--00--3--33--3--33--5--55--5--55--12--1212--12--1212-|
G-0--00--0--00--3--33--3--33--5--55--5--55--12--1212--12--1212-|
C-0--00--0--00--X--XX--X--XX--X--XX--X--XX---X---XX----X---XX--|
     ..     ..     ..     ..     ..     ..       ..        ..
on the last time you only play the 7's 8 times and let them ring
both guitars
D--------------------------------------------------------------------------|
A--------------------------------------------------------------------------|
F--------------------------------------------------------------------------| X3
C-00000000-00000000-33333333-33333333-55555555-55555555-77777777-77777777--|
G-00000000-00000000-33333333-33333333-55555555-55555555-77777777-77777777--|
C-00000000-00000000-33333333-33333333-55555555-55555555-77777777-77777777--|
  ........ ........ ........ ........ ........ ........ ........ ........
guitar 1
very simple but sounds great if you do it right
D-5H81-1H33-|
A-----------|
F-----------| do this till song fades
C-----------|
G-----------|
C-----------|
guitar 2
D----------------------------------|
F----------------------------------|
C----------------------------------| do this till song fades
G-T5P8-X8-T5P1-X8-T8P1-X8-T10P1-X8-|
C----------------------------------|
guitar 3

D--------------------------------------------------------------|
F--------------------------------------------------------------|
C-0--00--0--00--3--33--3--33--5--55--5--55--12--1212--12--1212-| do this till
G-0--00--0--00--3--33--3--33--5--55--5--55--12--1212--12--1212-| song fades
C-0--00--0--00--X--XX--X--XX--X--XX--X--XX--X----XX---X----XX--| as well

I guess that's it I hope you liked it and please if there is any corrections or comments 
all please feel free to E-mail me at "stalecheezpuff@aol.com"
also please rate
may God be with you
Comments