Sylver - Forever In Love Acoustic Chords & Tabs

 

Forever In Love Acoustic Chords & Tabs

Sylver Chords & Tabs

Version: 1 Type: Tab 0 ratings
1 star 2 stars 3 stars 4 stars 5 stars
comments

Forever In Love Acoustic Tab

By: Daniel Chang [kpxbigboy@hotmail.com]

There are two guitars used, but i only got one of them which is repeated throughout the entire song


[ Tab from: http://www.guitartabs.cc/tabs/s/sylver/forever_in_love_acoustic_tab.html ]
e|----------------------------3-------------------5--------|
B|--------2---------------------3---3-----------3---3---3--|
G|------4---4---4-----------0-----0-----------2-------2----|
D|----4-------4-----------0-----------------0--------------|
A|--2------------------------------------------------------|
E|----------------------3----------------------------------|

e|--------5------------------------------------------------|
B|------3---3---3------------------------------------------|
G|----2-------2--------------------------------------------|
D|--0------------------------------------------------------|
A|---------------------------------------------------------|
E|---------------------------------------------------------|

and you basically just repeat this over and over. listen to the track to get the timing down.
Comments