Sword - Outta Control Chords & Tabs

 

Outta Control Chords & Tabs

Sword Chords & Tabs

Version: 1 Type: Tab 0 ratings
1 star 2 stars 3 stars 4 stars 5 stars
comments

Outta Control Tab

   
Song: Outta Control
Band: Sword
Album: Metalized
Transcribed by: Brandon Wright (brrandon.wright@sympatico.ca)

“½ Step Down”
[ Tab from: http://www.guitartabs.cc/tabs/s/sword/outta_control_tab.html ]
Circusy Intro:
E-------------6-6---------18*-----
B-------------6-6-------------17*-
G----9-9------------9-------------
D----9-9------------9-------------
A-7-----------------7-------------
E-----------6---------------------
* Harmonic

Intro:
D-9----7---
A-7-8--5-6-
E-0-6----4-

Verse: 
D-5-9-
A-7-7-
E---0-

Chorus:
A-4-7--4-7--------------------------
E-2-5--2-5----10-9-8-7-6-5-4-3------
		2x Each
Comments