Switchfoot - Your Love Is A Song Chords & Tabs

 

Your Love Is A Song Chords & Tabs

Switchfoot Chords & Tabs

Version: 1 Type: Bass Tab

Your Love Is A Song Bass Tab

   
Song: Your Love Is A Song
Artist: Switchfoot
Tuning: EADG (Standard)

Simply  on one snare

Come In At 0:12

G[---------------------------------]
D[---------------------------------]
A[-9-9-9-9-5-5-5-5-0-0-0-0-7-7-7-7-]
E[---------------------------------]

G[---------------------------------]
D[---------------------------------]
A[-9-9-9-9-5-5-5-5-0-0-0-0-7-------]
E[---------------------------------]



G[---------------------------------]
D[---------------------------------]2x
A[-9-9-9-9-9-9-9-9-5-5-9-9-7-7-7-7-]
E[---------------------------------]


G[---------------------------------]
D[---------------------------------]
A[-5-5-9-9-7-7-7-7-5-5-9-9-7-7-7-7-] 
E[---------------------------------]


G[---------------------------------]
D[---------------------------------]2x
A[-9-9-9-9-5-5-5-5-0-0-0-0-7-7-7-7-]
E[---------------------------------]

 
G[-----------------]
D[-----------------]
A[-2-2-2-2-5-5-5-5-]
E[-----------------]

[ Tab from: http://www.guitartabs.cc/tabs/s/switchfoot/your_love_is_a_song_btab.html ]
G[---------------------------------]
D[---------------------------------]2x
A[-9-9-9-9-9-9-9-9-5-5-9-9-7-7-7-7-]
E[---------------------------------]


G[---------------------------------]
D[---------------------------------]
A[-5-5-9-9-7-7-7-7-5-5-9-9-7-7-7-7-] 
E[---------------------------------]



G[---------------------------------]
D[---------------------------------]4x
A[-9-9-9-9-5-5-5-5-0-0-0-0-7-7-7-7-]
E[---------------------------------]


G[---------------------------------] 
D[---------------------------------]2x
A[-5-5-9-9-7-7-7-7-5-5-9-9-7-7-7-7-] 
E[---------------------------------]


G[---------------------------------]
D[---------------------------------]2x
A[-9-9-9-9-5-5-5-5-0-0-0-0-7-7-7-7-]
E[---------------------------------]


G[---------------------------------] 
D[---------------------------------]
A[-2-2-2-2-5-5-5-5-9-9-7-7-5-5-5-5-]
E[---------------------------------]



G[---------------------------------]
D[---------------------------------]
A[-9-9-7-7-5-5-5-5-9-9-7-7-5-5-5-5-]
E[---------------------------------]


G[-----------------]
D[-----------------]
A[-2-2-2-2-5-------]
E[-----------------]