Switchfoot - This Is Your Life Chords & Tabs

 

This Is Your Life Chords & Tabs

Switchfoot Chords & Tabs

Version: 1 Type: Tab 0 ratings
1 star 2 stars 3 stars 4 stars 5 stars
comments

This Is Your Life Tab

“This is your life” by: Switchfoot

Standard Tuning: EBGDAE		



Intro/verse: Repeat.

E|------------------------------|	
B|------------------------------| 	
G|------------------------------|				
D|-------------------------6----|
A|-7—--4-7-4—–-4–7—--4—--4—–-7--|
E|—--4-------4---------5--------|

Chorus: Strum chords.
[ Tab from: http://www.guitartabs.cc/tabs/s/switchfoot/this_is_your_life_tab.html ]
E|----------------------------------------------|	
B|----------------------------------------------|  	
G|-9-----------9------------9-------------------| 				
D|-9------7----9-----7------9--------6--------7-|
A|-7—-----7----7-----7------7--------6--------7-|
E|—–------5----------5---------------4--------5-|
 .life....be..life...be...dream....younger..lose.


Small Solo: Repeat.

E|—--4-----5-4---|	
B|—2-----2-—---5-| 	
G|-----4---------|				
D|---------------|
A|---------------|
E|—--------------|



Comments