Switchfoot - Stars Chords & Tabs

 

Stars Chords & Tabs

Switchfoot Chords & Tabs

Version: 3 Type: Tab 0 ratings
1 star 2 stars 3 stars 4 stars 5 stars
comments

Stars Tab

SwitchFoot

Song :  STARS

Tuning:  Drop D

Tabbed by:  Jeff Martin

Note:  Tabbed for one guitar

/=Slide

Intro (Riff 1)

***Just chug the Low D-A strings inbetween

E---------------------------------------------------------------------|
B---------------------------------------------------------------------|
G--------6/7-----11-----9----13/16-14------6/7----11----9---9-9-9-----| (2x)
D---------------------------------------------------------------------|
A--0-0-0-4/5-0-0-9-0-0-7-0-0-11/14-12-0-0-4/5-0-0-9-0-0-7--7-7-7------|
D--0-0-0-----0-0---0-0---0-0-----------0-0-----0-0---0-0--------------|

Intro (Riff 2)

E----------------------------------------------------------------------|
B----------------------------------------------------------------------|
G--------6/7-----11----9------6/7-------6/7----11---------9---9-9-9----| (2x)
D----------------------------------------------------------------------|
A--0-2-0-4/5-0-0-9-0-0-7-0-0-4/5-0-2-0-4/5-0-0-9---0-0---7---7-7-7-----|
D--0-2-0-----0-0---0-0---0-0-----0-2-0-----0-0-----0-0-----------------|

Verse (Riff 3)

E-------------------------------------------------------------------------------|
B-------------------------------------------------------------------------------|
G--7-7-7-7---7-7-7-7-------------7-7-7-7------------------7-7-7-7---------------|  (x2)
D--7-7-7-7---7-7-7-7---9-9-9-9---7-7-7-7---10-10-10-10---7-7-7-7---7-7-7-7------|
A--5-5-5-5---5-5-5-5---9-9-9-9---5-5-5-5---10-10-10-10---5-5-5-5---7-7-7-7------|
D-----------------------9-9-9-9-------------10-10-10-10-------------7-7-7-7-----|

Pre-Chorus (Riff 4)

E----------------------------|
B----------------------------|
G----7-----------------------|
D----7-----7-----9----10-----|
A----5-----7-----9----10-----|
D----------7-----9----10-----|

Chorus (Riff 5)
[ Tab from: http://www.guitartabs.cc/tabs/s/switchfoot/stars_tab_ver_3.html ]
E-----------------------------------------------------------------|
B-----------------------------------------------------------------|
G-11-11-11--9--7------11-11-11--9--7------11-11-11--9---7---------|
D------------------7--------------------9---------------------5---|
A--9--9--9--7--5---7---9--9--9--7---5--9---9--9--9---7---5---5----|
D------------------7--------------------9---------------------5---|

E-------------------------------------------------------------------------------|
B-------------------------------------------------------------------------------|
G--------6/7-----11----9-9-9-9---11-11-11---9---7------11-11-11---9---7---------|
D----------------------------------------------------9----------------------7---|
A--0-2-0-4/5-0-0-9-0-0-7-7-7-7----9--9--9---7---5--9----9--9--9---7---5---7-----|
D--0-2-0-----0-0---0-0------------------------------9----------------------7----|

Then:

Riff 2 (1X)
Riff 3 (2X)
Riff 4 (1X)
Riff 5 (1X)
Riff 2 (1X)

Bridge (Riff 6)

E-----------------------------------------|
B-----------------------------------------|
G-----------------------------------------|
D---5---7---4---5---------5---7---9---10--|
A---5---7---4---5---------5---7---9---10--|
D---5---7---4---5---------5---7---9---10--|

When I look at the stars....

When I look at the stars....

When I look at the stars....

E------------------------------------------------------------------------------------|
B------------------------------------------------------------------------------------|
G-------------------------------------6/7-11-9-9-9-9---------------------------------|
D---10-10-10-10-10-10-5-5-5-5------------------------5-5-5-5-5-5-5-5-2-2-2-2-7-------|
A---10-10-10-10-10-10-5-5-5-5-0-2-0-4/5--9-7-7-7-7--5-5-5-5-5-5-5-5-2-2-2-2-7--------|
D---10-10-10-10-10-10-5-5-5-5-0-2-0-----------------5-5-5-5-5-5-5-5-2-2-2-2-7--------|

Riff 2 (2X) END ON D

Will update with fill in final riff...

It sure looked better before I mashed it into this small space, don't know if it sounds 
better hehe.  Anyways, it's a start...

Enjoy!
Comments