Switchfoot - Stars Chords & Tabs

 

Stars Chords & Tabs

Switchfoot Chords & Tabs

Version: 2 Type: Bass Tab

Stars Bass Tab

intro:
G------------------------------------------------>
D------------------------------------------------>
A------------------------------------------------>
D------------------------000000000000000000000--->
 rest 4 measures         play for 4 measures

intro:
G------------------------------------------------------------------>
D--------4---------------4---------------4---------------4--------->
A----45------7--45---45------7-777---45------7--45---45------7-777->
D-020--04-045-02--020--04-045-----020--04-045-02--020--04-045------>

verse 1:
G------------------------------------------------------------------>
D------------------------------------------------------------------>
A----------------------------------3-3-33---------0-0-00-0-00-0000->
D-0-0-00-0-00-0000-5-5-55-0-00-0000------5-55-5555----------------->
Maybe I've been the problem Maybe I'm the one to blame But even when I turn
if off and blame myself the outcome feels the same I've been thinkin' maybe

verse 1:
G------------------------------------------------------------------>
D------------------------------------------------------------------>
A----------------------------------3-3-33---------0-0-00-0-00-0000->
D-0-0-00-0-00-0000-5-5-55-0-00-0000------5-55-5555----------------->
I've been partly cloudy Maybe I'm the chance of rain and maybe I'm Overcast
and maybe all my Luck's washed the drain I've been thinkin' 'bout

verse 1:
G----------------------------->
D----------------------------->
A--------0~~----2~~----3~~---->
D-5~~------------------------->
Everyone Everyone you look so lonely

chorus:
G-------------------------------------------------------------------------->
D-------------------------------------------4------------------------------>
A----------------------333333-----------45------7777------------------0~~-->
D-000000000-5555555555--------555555-020--04-045-----555555555-222222------>
But when I look at the Stars when I look at the Stars when I look at the
Stars I see someone else when I look at the Stars the Stars I feel like
myself

chorus:
G---------------------------------->
D--------4---------------4--------->
A----45------7--45---45------7-777->
D-020--04-045-02--020--04-045------>
[ Tab from: http://www.guitartabs.cc/tabs/s/switchfoot/stars_btab_ver_2.html ]
Repeat the verse 1 riffs:
Stars looking at a planet watching entropy and pain And maybe start to
wonder how the chaos in our lives could pass as sane I’ve been
thinkin’ ‘bout the meaning of resistance Of a hope beyond my own and
suddenly the infinite and penitent begin to look like home I’ve been
thinkin’ ‘bout

verse 2:
G----------------------------->
D----------------------------->
A--------0~~----2~~----3~~---->
D-5~~------------------------->
Everyone Everyone you look so empty

chorus 2:
G-------------------------------------------------------------------------->
D-------------------------------------------4------------------------------>
A----------------------333333-----------45------7777------------------0~~-->
D-000000000-5555555555--------555555-020--04-045-----555555555-222222------>
But when I look at the Stars when I look at the Stars when I look at the
Stars I  see someone else But when I look at the Stars the Stars I feel
like myself Yeah!

brdige:
G-------------------------------------------------------------------------->
D--------4---------------4----------------------------4-------------------->
A----45------7--45---45------7-777----------------45------7--45------------>
D-020--04-045-02--020--04-045------5555-44-777-020--04-045-02--5555-44-777->
                                   the Stars                   the Stars
bridge:
G------------------------------------------------------->
D------------------------------------------------------->
A--------0~~-------------------------0~~----2~~----3~~-->
D-5~~-----------4~~----5~~----5~~----------------------->
Everyone Everyone we feel so lonely Everyone yeah Everyone we feel so empty

**chorus 3**
But when I look at the Stars when I look at the Stars when I look at the

chorus 3:
G------------------------------------------------------->
D------------------------------------------------------->
A-33333333-------------45------7777-----------------0~~->
D----------55555555-020--04-045-----55555555-222222----->
Stars I feel like myself when I look at the Stars the Stars I see someone

outro:
G------------------------------------------------------------------------>
D--------4---------------4---------------4---------------4--------------->
A----45------7--45---45------7-777---45------7--45---45------7--4-5------>
D-020--04-045-02--020--04-045-----020--04-045-02--020--04-045-02-----0~~->