Switchfoot - Something More Chords & Tabs

 

Something More Chords & Tabs

Switchfoot Chords & Tabs

Version: 1 Type: Tab

Something More Tab

   
intro: guitar 1 (flute, keyboard, and maybe some more things)
e-------------------------------------------->
B-------------------------------------------->
G-------------------------------------------->
D-------------------------------------------->
A-------------------------------------------->
E-2/7~----------------2/7~------------------->

verse 1: guitar 1
e----------------------------------------------------->
B-2-44-2-2-44-0-22-4b-2----2-44-2-2-44-0-22-2b-0-/5-4->
G-4-44-4-4-44-2-22---------4-44-4-4-44-2-22----------->
D-4-44-4-4-44-2-22---------4-44-4-4-44-2-22----------->
A-2-22-2-2-22-0-00---------2-22-2-2-22-0-00----------->
E----------------------------------------------------->
Augustine just woke up with a broken heart all this time heís never been
awake before

verse 1: guitar 1
e----------------------------------------------------->
B-2-44-2-2-44-0-22-4b-2----2-44-2-2-44-0-22-4b-2\----->
G-4-44-4-4-44-2-22---------4-44-4-4-44-2-22----------->
D-4-44-4-4-44-2-22---------4-44-4-4-44-2-22----------->
A-2-22-2-2-22-0-00---------2-22-2-2-22-0-00----------->
E----------------------------------------------------->
at thirty-one his whole world is a question mark all this time heís never
been awake before

pre-chorus 1: guitar 1
e-------------------------------0000-2222->
B------------0-000000-----------0000-4444->
G-----66-44-+2-222222-----66-44-2222-4444->
D-+6-666-44-+2-222222-+6-666-44-2222-4444->
A-+6-644-22-+0-000000-+6-644-22-0000-2222->
E-+4-4-------0-000000-+4-4------0000------>
watching dreams that he once had feed the flame inside his head in a quiet
desperation of the emptiness he says

chorus: guitars 2 and 1
e-------------00000000000-00000000000-00000000000->
B-55555555555-00000000000-00000000000-00000000000->
G-44444444444-22222222222-33333333333/66666666666-> repeat
D-22222222222-22222222222-44444444444/77777777777->
A-22222222222-00000000000-44444444444/77777777777->
E-00000000000-00000000000-22222222222/55555555555->
thereís gotta be something more than what Iím liviní for Iím crying out to
You yeah, thereís gotta be something more than what Iím liviní for Iím
cryiní out to You

verse 2: guitar 1
e----------------------------------------------------->
B-2-44-2-2-44-0-22-4b-2----2-44-2-2-44-0-22-2b-0-/5-4->
G-4-44-4-4-44-2-22---------4-44-4-4-44-2-22----------->
D-4-44-4-4-44-2-22---------4-44-4-4-44-2-22----------->
A-2-22-2-2-22-0-00---------2-22-2-2-22-0-00----------->
E----------------------------------------------------->
Augustine all his fears keep falling out all this time heís never been
awake before 

verse 2: guitar 1
e----------------------------------------------------->
B-2-44-2-2-44-0-22-4b-2----2-44-2-2-44-0-22-4b-2\----->
G-4-44-4-4-44-2-22---------4-44-4-4-44-2-22----------->
D-4-44-4-4-44-2-22---------4-44-4-4-44-2-22----------->
A-2-22-2-2-22-0-00---------2-22-2-2-22-0-00----------->
E----------------------------------------------------->
finding out his old dreams arenít panning out all this time heís never been
awake before

pre-chorus 2: guitar 1
e-------------------------------0000-2222->
B------------0-000000-----------0000-4444->
G-----66-44-+2-222222-----66-44-2222-4444->
D-+6-666-44-+2-222222-+6-666-44-2222-4444->
A-+6-644-22-+0-000000-+6-644-22-0000-2222->
E-+4-4-------0-000000-+4-4------0000------>
but heís mad to be alive and heís dying to be met in a quiet desperation of
the emptiness he says

---REPEAT CHORUS

bridge: guitar 1
e-------------------------------------------------->
B-44-44-44-44-00-22-4b-2----2-44-2-2-44-0-22-33\00->
G-44-44-44-44-22-22---------4-44-4-4-44-2-22------->
D-44-44-44-44-22-22---------4-44-4-4-44-2-22------->
A-22-22-22-22-00-00---------2-22-2-2-22-0-00------->
E-------------------------------------------------->
(you....yeah....) something more
[ Tab from: http://www.guitartabs.cc/tabs/s/switchfoot/something_more_tab.html ]
bridge: guitar 2
e-0~-------------------------->
B-0~-------------------------->
G-9~-------------------------->
D-9~-------------------------->
A-7~-------------------------->
E-0~-------------------------->

bridge: guitar 1
e-0~-----0~-----0~-----0~-----0~-----0~-----0~-----0~------>
B-0~-----0~-----0~-----0~-----0~-----0~-----0~-----0~------>
G-9~-----6~-----3~-----6~-----9~-----6~-----3~-----6~------>
D-9~-----6~-----4~-----7~-----9~-----6~-----4~-----7~------>
A-7~-----4~-----1~-----7~-----7~-----4~-----1~-----7~------>
E-0~-------------------5~-----0~-------------------5~------>
hey, I give it all away nothing I was holding back remains hey, I give it
all away looking for the grace of God today

fill: guitar 2 (r= 11th fret, t= 12th fret)
/e-00000000000000000000000000000000000000000000000000--00--00--0~-->\
|B-00000000000000000000000000000000000000000000000055-+77-+99-+t~-->|
|G-8-8-8-8-+88-888-9-9-9-9-+99-999-6-6-6-6-+66-666-44-+66-+88-+r~-->|
|D-9-9-9-9-+99-999-r-r-r-r-+rr-rrr-7-7-7-7-+77-777-22-+44-+66-+9~-->|
|A-9-9-9-9-+99-999-r-r-r-r-+rr-rrr-7-7-7-7-+77-777----------------->|
|E-7-7-7-7-+77-777-9-9-9-9-+99-999-5-5-5-5-+55-555----------------->|
|                                                                   |
|fill: guitar 1 (r= 11th fret)                                      |
|E-000000000000000000000000000000000000000000000000000000000000000->|
|B-000000000000000000000000000000000000000000000000000000000000000->|
|G-8-8-8-8-+88-888-9-9-9-9-+99-999-6-6-6-6-+66-666-8-8-8-8-+88-888->|
|D-9-9-9-9-+99-999-r-r-r-r-+rr-rrr-7-7-7-7-+77-777-9-9-9-9-+99-999->|
|A-9-9-9-9-+99-999-r-r-r-r-+rr-rrr-7-7-7-7-+77-777-9-9-9-9-+99-999->|
\E-7-7-7-7-+77-777-9-9-9-9-+99-999-5-5-5-5-+55-555-7-7-7-7-+77-777->/

chorus 2: guitars 1 and 2
e-0-0-0000-----00000000000000000000000000000000000000000000000--00--00--0~->
B-0-0-0000-----00000000000000000000000000000000000000000000055-+77-+99-+t~->
G-7-7-7777-----66666663333333366666661111111166666663333333344-+66-+88-+r~->
D-9-9-9999-----77777774444444477777772222222277777774444444422-+44-+66-+9~->
A-9-9-9999-----777777744444444777777722222222777777744444444--------------->
E-0-0-0000-----555555522222222555555500000000555555522222222--------------->
thereís gotta be something more than what Iím liviní for Iím crying out to
You yeah, thereís gotta be something more than what Iím liviní for Iím
cryin out to You yeah

last chorus: guitars 1 and 2
E-000000000000000000000000000000000000000000000000000000000000000~->
B-000000000000000000044450000000000000000000000000004445000000000~->
G-999888996666889333344449999999r9998889966688893333444499999999r~->
D-9999999977777794444----999999999999999977777794444----999999999~->
A------------------------------------------------------------------>
E------------------------------------------------------------------>
thereís gotta be something more than what Iím liviní for Iím cryin out to
You yeah, thereís gotta be something more than what Iím liviní for Iím
cryin out to You

outro: guitar 1 (s= 10th fret)
/e-0-0-000-00-0-0-0-0-000-00-0-0-0-0-000-00-0-0-0-0-000-00-0-0--7~-------->\
|B-0-0-000-00-0-0-0-0-000-00-0-0-0-0-000-00-0-0-0-0-000-00-0-0--7~-------->|
|G-9-9-999-99-9/r-9-9-999-99-9/r-9-9-999-99-9/r-9-9-999-99-9/r--9~-------->|
|D-9-9-999-99-9-9-9-9-999-99-9-9-9-9-999-99-9-9-9-9-999-99-9-9--9~-------->|
|A--------------------------------------------------------------7~-------->|
|E------------------------------------------------------------------------>|
|                                                                          |
|outro: guitar 2 (s= 10th fret)                                            |
|e-0-0-000-00-0-0-0-0-000-00-0-0-0-0-000-00-0-0-0-0-000-00-0-0------------>|
|B-0-0-000-00-0-0-0-0-000-00-0-0-0-0-000-00-0-0-0-0-000-00-0-0------------>|
|G-9-9-999-ss-9/r-9-9-999-ss-9/r-9-9-999-ss-9/r-9-9-999-ss-9/r------------>|
|D-9-9-999-ss-9/r-9-9-999-ss-9/r-9-9-999-ss-9/r-9-9-999-ss-9/r------------>|
|A-7-7-777-88-7/9-7-7-777-88-7/9-7-7-777-88-7/9-7-7-777-88-7/9------------>|
\E------------------------------------------------------------------------>/

---REPEAT INTRO 3x (fade out)