Switchfoot - Shadows Prove The Sunshine Chords & Tabs

 

Shadows Prove The Sunshine Chords & Tabs

Switchfoot Chords & Tabs

Version: 1 Type: Tab 0 ratings
1 star 2 stars 3 stars 4 stars 5 stars
comments

Shadows Prove The Sunshine Tab

   
Switchfoot
The Shadow Proves The Sunshine
Nothing Is Sound -- 2005

Tuning - Standard Tuning (E A D G B E)

Verse 1
No Guitar - This is the album version of this song. 
            When they play live they use the chords for the Verses & Chorus 2
Chorus 1
No Guitar

Verse 2 
"oh Lord, why did..."
E|--------------------------------------------------------------------------|
B|-----------0-0-0-0--5-5-5-5--0-0-0-0--0-0-0-0--0-0-0-0--4-4-4-4--0-0-0-0--|
G|--9-9-9-9--4-4-4-4--4-4-4-4--4-4-4-4--2-2-2-2--4-4-4-4--5-5-5-5--4-4-4-4--|
D|--9-9-9-9--4-4-4-4--6-6-6-6--4-4-4-4--2-2-2-2--4-4-4-4--6-6-6-6--4-4-4-4--|
A|--7-7-7-7--2-2-2-2--4-4-4-4--2-2-2-2--0-0-0-0--2-2-2-2--4-4-4-4--2-2-2-2--|
E|--------------------------------------------------------------------------|

"storm clouds..."
E|--------------------------------------------------------------------------|
B|-----------0-0-0-0--5-5-5-5--0-0-0-0--0-0-0-0--0-0-0-0--4-4-4-4-----------|
G|--9-9-9-9--4-4-4-4--4-4-4-4--4-4-4-4--2-2-2-2--4-4-4-4--5-5-5-5--9-9-9-9--|
D|--9-9-9-9--4-4-4-4--6-6-6-6--4-4-4-4--2-2-2-2--4-4-4-4--6-6-6-6--8-8-8-8--|
A|--7-7-7-7--2-2-2-2--4-4-4-4--2-2-2-2--0-0-0-0--2-2-2-2--4-4-4-4--6-6-6-6--|
E|--------------------------------------------------------------------------|

Chorus 2 - 2x
E|--0-0-0-0--0-0-0-0-----------0-0-0-0--0-0-0-0--0-0-0-0--0-0-0-0--0-0-0-0--|
B|--0-0-0-0--0-0-0-0--5-5-5-5--0-0-0-0--0-0-0-0--0-0-0-0--0-0-0-0--0-0-0-0--|
G|--9-9-9-9--4-4-4-4--4-4-4-4--4-4-4-4--2-2-2-2--4-4-4-4--2-2-2-2--4-4-4-4--|
D|--9-9-9-9--4-4-4-4--6-6-6-6--4-4-4-4--2-2-2-2--4-4-4-4--2-2-2-2--4-4-4-4--|
A|--7-7-7-7--2-2-2-2--4-4-4-4--2-2-2-2--0-0-0-0--2-2-2-2--0-0-0-0--2-2-2-2--|
E|--------------------------------------------------------------------------|
[ Tab from: http://www.guitartabs.cc/tabs/s/switchfoot/shadows_prove_the_sunshine_tab.html ]
Bridge
Guitar 1
E|--0-0-0-0--0-0-0-0-----------0-0-0-0--|
B|--0-0-0-0--0-0-0-0--5-5-5-5--0-0-0-0--|
G|--1-1-1-1--2-2-2-2--4-4-4-4--2-2-2-2--|(2x)
D|--2-2-2-2--2-2-2-2--6-6-6-6--2-2-2-2--|
A|--2-2-2-2--0-0-0-0--4-4-4-4--0-0-0-0--|
E|--0-0-0-0-----------------------------|

E|--0-0-0-0--------------------0-0-0-0--|
B|--0-0-0-0-----------5-5-5-5--0-0-0-0--|
G|--1-1-1-1--2-2-2-2--4-4-4-4--2-2-2-2--|
D|--2-2-2-2--4-4-4-4--6-6-6-6--2-2-2-2--|
A|--2-2-2-2--4-4-4-4--4-4-4-4--0-0-0-0--|
E|--0-0-0-0--2-2-2-2--------------------|

E|--0-0-0-0--0-0-0-0-----------0-0-0-0--0--|
B|--0-0-0-0--0-0-0-0--5-5-5-5--0-0-0-0--0--|
G|--1-1-1-1--2-2-2-2--4-4-4-4--2-2-2-2--1--|
D|--2-2-2-2--2-2-2-2--6-6-6-6--2-2-2-2--2--|
A|--2-2-2-2--0-0-0-0--4-4-4-4--0-0-0-0--2--|
E|--0-0-0-0-----------------------------0--|

Guitar 2
E|-----------------------------------|
B|-----------------------------------|
G|--9------11------13-------6--8--9--|(2x)
D|--x-(8x)--x-(8x)--x-(8x)--x--x--x--|
A|--7-------9------11-------4--6--7--|
E|-----------------------------------|

E|--------------------------------------------0--|
B|--------------------------------------------0--|
G|--9------11------13------14-------16--------1--|
D|--x-(8x)--x-(8x)--x-(8x)--x-(8x)---x-(24x)--2--|
A|--7-------9------11------12-------14--------2--|
E|--------------------------------------------0--|
      
Interlude
Same as chorus chords

Chorus 2 - 2x
E|--0-0-0-0--0-0-0-0-----------0-0-0-0--0-0-0-0--0-0-0-0--0-0-0-0--0-0-0-0--|
B|--0-0-0-0--0-0-0-0--5-5-5-5--0-0-0-0--0-0-0-0--0-0-0-0--0-0-0-0--0-0-0-0--|
G|--9-9-9-9--4-4-4-4--4-4-4-4--4-4-4-4--2-2-2-2--4-4-4-4--2-2-2-2--4-4-4-4--|
D|--9-9-9-9--4-4-4-4--6-6-6-6--4-4-4-4--2-2-2-2--4-4-4-4--2-2-2-2--4-4-4-4--|
A|--7-7-7-7--2-2-2-2--4-4-4-4--2-2-2-2--0-0-0-0--2-2-2-2--0-0-0-0--2-2-2-2--|
E|--------------------------------------------------------------------------|

Bridge

Please leave comments/corrections
Comments