Switchfoot - Shadow Proves The Sunshine Chords & Tabs

 

Shadow Proves The Sunshine Chords & Tabs

Switchfoot Chords & Tabs

Version: 1 Type: Tab

Shadow Proves The Sunshine Tab

(riff 1) verse 1: guitar 1 (really soft) repeat
e------------------------------------------------------------------>
B------------------------------------------------------------------>
G------------------------------------------------------------------>
D-2-222-22-------------------------------------------------1-1-111->
A---------2-222-22-4-4-444-2-2-222-0-0-000-2-2-222-4-4-444--------->
E------------------------------------------------------------------>
Sunshine, won't you be my mother Sunshine, come and help me sing My heart
is darker than these oceans My heart is frozen underneath We are 

(riff 2) chorus: guitar 1 (still soft)
e------------------------------------------------------------------>
B------------------------------------------------------------------>
G------------------------------------------------------------------>
D-2-2-222-2-22----------------------------------------------------->
A--------2-----4-4-444-2-2-22-0-0-02-2-22-0-0-02-2-222------------->
E------------------------------------------------------------------>
crooked souls trying to stay up straight, Dry eyes in the pouring rain well
The shadow proves the sunshine The shadow proves the sunshine

chorus: repeat riff 2
 Two scared little runaways Hold fast to the break of day light where The
 shadow proves the sunshine The shadow proves the sunshine

verse 2: repeat riff 1
 Oh Lord, why did you forsake me?  Oh Lord, don't be far away, away Storm
 clouds gathering beside me Please Lord, don't look the other way
[ Tab from: http://www.guitartabs.cc/tabs/s/switchfoot/shadow_proves_the_sunshine_tab.html ]
chorus: repeat riff 2
 Crooked souls trying to stay up straight Dry eyes in the pouring rain well
 The shadow proves the sunshine The shadow proves the sunshine

chorus: repeat riff 2
 Two scared little runaways Hold fast to the break of day light where The
 shadow proves the sunshine The shadow proves the sunshine

bridge: guitar 1 (not softly)
e-------------------------------------2~--------------2~---------->
B-55~-------------55~-------------55~-2~----------55~-2~---------->
G-44~-2~--6~--2~--44~-2~--6~--2~--44~-----6~--2~--44~-----6~--2~-->
D-22~-2~--6~--2~--22~-2~--6~--2~--22~-4~--6~--2~--22~-4~--6~--2~-->
A-----0~--4~--0~--22~-0~--4~--0~--22~-4~--4~--0~--22~-4~--4~--0~-->
E-----------------00~-------------00~-2~----------00~-2~---------->
Yeah Yeah, shine on me Yeah Yeah, shine on me Yeah Yeah, shine on me Yeah
Yeah

bridge: repeat riff 2
oh, oh, oh

chorus: repeat riff 2
Crooked souls trying to stay up straight Dry eyes in the pouring rain well
The shadow proves the sunshine The shadow proves the sunshine

chorus: repeat riff 2
Two scared little runaways Hold fast to the break of day light where The
shadow proves the sunshine The shadow proves the sunshine

bridge: guitar 1 (not softly)
e-------------------------------------2~--------------2~------------->
B-55~-------------55~-------------55~-2~----------55~-2~----------5~->
G-44~-2~--6~--2~--44~-2~--6~--2~--44~-----6~--2~--44~-----6~--2~--4~->
D-22~-2~--6~--2~--22~-2~--6~--2~--22~-4~--6~--2~--22~-4~--6~--2~--2~->
A-----0~--4~--0~--22~-0~--4~--0~--22~-4~--4~--0~--22~-4~--4~--0~--2~->
E-----------------00~-------------00~-2~----------00~-2~----------0~->
Yeah Yeah, shine on me Yeah Yeah, shine on me Yeah Yeah, shine on me Shine
on me, the shadow proves the sunshine