Switchfoot - Redemption Chords & Tabs

 

Redemption Chords & Tabs

Switchfoot Chords & Tabs

Version: 2 Type: Tab 0 ratings
1 star 2 stars 3 stars 4 stars 5 stars
comments

Redemption Tab

Artist:Switchfoot
Song:Redemption
Album:The Beautiful Letdown
Tabbed by: Matt
This is my first TAB, and I'm pretty sure that it's good. This is one of my favorite
songs that Switchfoot plays. Enjoy!


intro

guitar 1 (acoustic)
E|--------------------------------------------------------------------------|
b|--------------------------------------------------------------------------|
g|--------------------------------------------------------------------------|
d|--------------------------------------------------------------------------|
a|--------------------------------------------------------------------------|
e|12-12-12-12--3-3-3--3-3/-8-8-8--8-8\-3-3-3--3-3/-7-7-7--7-7--8-8-8--8-8---|


do this twice, and at the end of the second time, guitar two plays this:


guitar 2 (electric with distortion)

E|-------------------------------------------------------------------------|
b|-12-12-12-12-12/-10-10-10-10-10/-8-8-8-8-8/-5-5-5-5-5--------------------|
g|---------------------------------------------------------4--5-4---5======|
d|--9--9--9--9--9/--7--7--7--7--7/-5-5-5-5-5/-2-2-2-2-2--------------------|
a|---------------------------------------------------------2--3-2---3======|
e|-------------------------------------------------------------------------|



Verse 1
[ Tab from: http://www.guitartabs.cc/tabs/s/switchfoot/redemption_tab_ver_2.html ]
guitar 1 (acoustic)
E|-------------------------------------------------------------------------|
b|-------------------------------------------------------------------------|
g|-------------------------------------------------------------------------|
d|-------------------------------------------------------------------------|
a|-------------------------------------------------------------------------|
e|12-12-12-12--3-3-3--3-3/-8-8-8--8-8\-3-3-3--3-3/-7-7-7--7-7--8-8-8--8-8--|


guitar 2 (clean electric)
E|-------------------------------------------------------------------------|
b|-------------------------------------------------------------------------|
g|----9-9-99---------------------------------------------------------------|
d|----9-9-99---5-5-55---10-10-1010---5-5-55---9-9-99---10-10-10-1010-------|
a|----x-x-xx---5-5-55---10-10-1010---5-5-55---9-9-99---10-10-10-1010-------|
e|----7-7-77---3-3-33----8--8--8-8---3-3-33---7-7-77----8--8--8--8-8-------|


Chourus
guitar 1(clean electric)
E|-------------------------------------------------------------------------|
b|-------------------------------------------------------------------------|
g|---9-9-99---6-6-66---2-2-22---2-2-22-------------------------------------|
d|---9-9-99---6-6-66---2-2-22---2-2-22-------------------------------------|
a|---7-7-77---4-4-44---0-0-00---0-0-00-------------------------------------|
e|-------------------------------------------------------------------------|
Comments