Switchfoot - Only Hope Chords & Tabs

 

Only Hope Chords & Tabs

Switchfoot Chords & Tabs

Version: 9 Type: Tab 0 ratings
1 star 2 stars 3 stars 4 stars 5 stars
comments

Only Hope Tab

Guitar transcription by Aldoni Ajawaila
Comments, suggestions, corrections & violent reactions..
E-mail me at aldoni@yahoo.com

(I sort of mixed all the strings that I hear and came up with this intro. You'll dig 
once you get the
of it. Listen to the record and you'll get the intro in no time.)

STANDARD TUNING (EABDGe)

[ intro ]

 e |----------------------------------------------------------------------|
 B |-----------------------------------------------------3---3---3---3----|
 G |-----------7----------------------------------------0---0---0---0-----|
 D |---------5---5------------------7-----------4p2-----------------------|
 A |---5-/-7-------7--------------5---5--------5-------3-------3---2---2--|
 E |-----------------3------5-/-7-------7-0----------------3--------------|


 e |-----------------------------------------------------------------------|
 B |------------------------------------------------3---3---3---3----------|
 G |----------7-------4----------------------------0---0---0---0-----------|
 D |--------5-------5-------------7--------4p2-----------------------------|
 A |--5-/-7---------------------5---------5-------3-------3---2---2--------|
 E |--------------3-------5-/-7------0----------------3--------------------|

[ 1 ]
                                                   [Play this part twice]
 e |--------------------------------------------|--------------------------|
 B |--------------------------------------------|----3---3---3---3---2-----|
 G |-----------7-------4------------------------|---0---0---0---0---0------|
 D |---------5-------5-------------7--------4p2-|--------------------------|
 A |---5-/-7---------------------5---------5----|--3-------3---2---2-------|
 E |---------------3-------5-/-7------0---------|------3-------------------|


[ 2 ]
[ Tab from: http://www.guitartabs.cc/tabs/s/switchfoot/only_hope_tab_ver_9.html ]
 e |----0----0----0--------------4----0----4----0---------------------------|
 B |----0----0----0--------------5----0----5----1---------------------------|
 G |----1----1----2----[ 2x ]----4----2----4----0---------------------------|
 D |----2----1----2--------------6----2----6----2---------------------------|
 A |----2----2----0--------------4----0----4----3---------------------------|
 E |----0----0--------------------------------------------------------------|

[ 3 ]

 e |----0----0--------------2----2----0----2----0----2----------------------|
 B |----3----0--------------2----4----0----4----0----4----------------------|
 G |----2----0----[ 3X ]----2----4----2----4----2----4----------------------|
 D |----0----2--------------4----4----2----4----2----4----------------------|
 A |---------2--------------4----2----0----2----0----2----------------------|
 E |---------0--------------2-----------------------------------------------|



[ intro ]


[ 1 ] There's a song that's inside of my soul.
It's the one that I've tried to write over, and over again.
[ 1 ] I'm awake in the infinite cold.
But you sing to me over, and over, and over again.


[ 2 ] So I lay my head back down.
And I lift my hands and pray.
To be only yours I pray.
To be only yours.
I know now, you're my only hope.


[ 1 ] Sing to me the song of the stars.
Of your galaxy dancing and laughing, and laughing again.
[ 1 ] When it feels like my dreams are so far.
Sing to me of the plans that you have for me over again.


[ 2 ] So I lay my head back down.
And I lift my hands and pray.
To be only yours I pray.
To be only yours.
I know now, you're my only hope.


[ 3 ] I give you my destiny.
I'm givin' you all of me.
I want your symphony, singing in all that I am.
At the top of my lungs, I'm givin' it back.


[ 2 ] So I lay my head back down.
And I lift my hand and pray.
To be only yours I pray.
To be only yours I pray.
To be only yours.
I know now, you're my only hope.
Comments