Switchfoot - Only Hope Chords & Tabs

 

Only Hope Chords & Tabs

Switchfoot Chords & Tabs

Version: 7 Type: Tab 0 ratings
1 star 2 stars 3 stars 4 stars 5 stars
comments

Only Hope Tab

   
-------------------------------------------------------------------------------
			     ONLY HOPE - Switchfoot
-------------------------------------------------------------------------------
Tabbed by:  Ippy
Email:  mci@utm.utoronto.ca

Hey everyone, this is my first tab (don't start rolling your eyes, I know I do
too).  But this should be good.  I've listened to the song and this seems to be
how its played on their Meant to Live cd.  I hope its all good and that it works
out for you!

Tuning:  Standard

Piano Intro

e|--10--12--------------10--|
B|------------------12------|
G|----------12--11----------|
D|--------------------------|
A|--------------------------|
E|--------------------------|

Guitar Intro x2

e|-------------------------0-------------------------------------------------|
B|-------------------3--------0--1/3--3--3--1p--2/4--2p----------------------|
G|-------0--------4-----4--------------------------------------0-------------|
D|-2--------5--------------------------------------------2--4-----4--2--1--2-|
A|----2--------5-------------------------3---------------3-------------------|
E|-0--------3--------2--------0--------------------------------------------0-|

Verse x4

e|------------------------------------------------------------------------------------|
B|----------3--------0--------------------------3-----------3-----------3-------------|
G|-------0--------------------2--------------0-----0-----0-----0-----0--------------5-|
D|--1/2-----------0--------0-----------4-----------------------------------------5----|
A|----------------------2-----------2-----3-----------------------3--------3--2-------|
E|-------------3-----------------0--------------------3-------------------------------|

Chorus
[ Tab from: http://www.guitartabs.cc/tabs/s/switchfoot/only_hope_tab_ver_7.html ]
e|--0----0----0--------0----0----0----0----0----0----x----x------------------|
B|--0----0----0--------0----0----0----5----0----5----x----x------------------|
G|--1----4----6--------1----4----6----6----6----6----5----4------------------|
D|--2----4----7--------2----4----7----6----7----6----5----4------------------|
A|--2----2----7--------2----2----7----4----7----4----3----2------------------|
E|--0----0----5--------0----0----5----x----5----x----x----x------------------|


Repeat Verse x4

Repeat chorus x2

Solo x2

e|---------------------------------------------------------------------------|
B|---------------------------------------------------------------------------|
G|-----4--4-----4--4--------------4--4--------------4--4---------------------|
D|--2--------0-----------4--4--2-----------5--5--0-----------5--5-----4--4---|
A|--------------------2-----------------3-----------------3--------2---------|
E|---------------------------------------------------------------------------|

Bridge

e|--x----x----x----x----x----x----0----0----0----0---------------------------|
B|--x----x----x----x----x----x----0----0----0----0---------------------------|
G|--7----4----7----4----3----4----6----4----6----4---------------------------|
D|--7----4----7----4----4----4----7----4----7----4---------------------------|
A|--5----2----5----2----4----2----7----2----7----2---------------------------|
E|--x----0----x----0----2----0----5----0----5----0---------------------------|

Repeat chorus x1

    E    B    A        E    B    A    C#m  A    C#m  A    C#m  C    B

e|--0----0----0--------0----0----0----0----0----0----0----0----x----x--------|
B|--0----0----0--------0----0----0----5----0----5----0----5----x----x--------|
G|--1----4----6--------1----4----6----6----6----6----6----6----5----4--------|
D|--2----4----7--------2----4----7----6----7----6----7----6----5----4--------|
A|--2----2----7--------2----2----7----4----7----4----7----4----3----2--------|
E|--0----0----5--------0----0----5----x----5----x----5----x----x----x--------|

Repeat Guitar Intro x2


| /  slide up
| \  slide down
| h  hammer-on
| p  pull-off
| ~  vibrato
| +  harmonic
| x  Mute note
===============================================================================
Comments