Switchfoot - Only Hope Chords & Tabs

 

Only Hope Chords & Tabs

Switchfoot Chords & Tabs

Version: 6 Type: Tab 0 ratings
1 star 2 stars 3 stars 4 stars 5 stars
comments

Only Hope Tab

   
Switchfoot Ė Only Hope
Tabbed By: Young Choi
Email: young_young_head@yahoo.com

Standard Tuning: EADGBE

Chords:
  E    B    A    C9   C#m7 G    D    Em   F#7
--0----2----0----0----4----3----2----0----2------------------
--0----4----2----3----5----3----3----0----2------------------
--1----4----2----0----4----0----2----0----3------------------
--1----4----2----2----6----0----0----2----2------------------
--2----2----0----3----4----2---------2----4------------------
--0---------0---------4----3---------0----2------------------

Intro:
--10-12----------10~-----------------------------
--------------12---------------------------------
--------12-11------------------------------------
-------------------------------------------------
-------------------------------------------------
-------------------------------------------------

-------------------------------------------------
-------------------------------------------------
------7-9---7-7-7--------------------------------
----9-----9-------10-9-9-7-----------------------
--7------------------------10-7-9-10-9-7---------
-----------------------------------------11------

-------------------------------------------------
-------------------------------------------------
------7------7-7-7-------------------------------
----9---10-9-------10-9-9-7----------------------
--7-------------------------10-7-9-10-9-7----7~--
------------------------------------------11ó----

Verse 1: (4x)
-------------------------------------------------
------3-----0------------------------------------
----0-------------2------------------------------
--2-------0-----0-------4------------------------
--------------2-------2--------------------------
--------3-----------0----------------------------

-------------------------------------------------
------3-------3-------3--------------------------
----0---0---0---0---0---------4------------------
----------------------------4--------------------
--3---------------3-----3-2----------------------
----------3--------------------------------------
[ Tab from: http://www.guitartabs.cc/tabs/s/switchfoot/only_hope_tab_ver_6.html ]
Chorus:
     E      B         A
So I lay my head back down,
      E       B         A          C#m7 
And I lift my hands and pray to be only Yours,
  A          C#m7
I pray to be only yours,
  C9                 B    
I know now You're my only hope.

Verse 1: (1x)

Verse 2:
Em        G         Bm  Em       C9 G C9 B
  Sing to me of the songs of the stars,
Em        G      Bm   Em     C9           G         C9   B
  Of Your galaxy dancing and laughing and laughing again.
Em        G             Bm  Em        C9 G C9 B
  When it feels like my dreams are so far,
Em        G         Bm  Em         C9          G     C9   B
  Sing to me of the plans that You have for me over again.

Chorus: (repeat)

Pre-Bridge: (2x)
-------------------------------------------------
-------------------------------------------------
----4-4---4-4---------4-4---------4-4------------
--2-----0-------4-4-2-------5-5-0-------5-5---4-4
--------------2-----------3-----------3-----2----
-------------------------------------------------

Bridge:
D                 Em
 Iíll give You my apathy,
D               Em 
 Iím giving You all of me.
D           Em
 I want Your symphony,
F#7                   B
Singing in all that I am.
       A               B
At the top of my lungs,
    A              B
Iím giving it back.

Chorus: (repeat)

(Guitar 1)
Verse 1: (2x) 

(Guitar 2)
Ending:
-------------------------------------------------
-------------------------------------------------
--7-7-7------------------------------------------
--------10-9-9-7---------------------------------
-----------------10-7-9-10-9-7-------------------
-------------------------------11----------------

-------------------------------------------------
-------------------------------------------------
------7-9---7-7-7--------------------------------
----9-----9-------10-9-9-7-----------------------
--7------------------------10-7-9-10-9-7----7~---
-----------------------------------------11------
Comments