Switchfoot - Only Hope Chords & Tabs

 

Only Hope Chords & Tabs

Switchfoot Chords & Tabs

Version: 4 Type: Tab 0 ratings
1 star 2 stars 3 stars 4 stars 5 stars
comments

Only Hope Tab

   
#----------------------------------PLEASE NOTE---------------------------------#
#This file is the author's own work and represents their interpretation of the #
#song. You may only use this file for private study, scholarship, or research. #
#------------------------------------------------------------------------------#

ONLY HOPE by SWITCHFOOT

Guitar transcription by Nathan Gilera Hayag, RRT

Comments, suggestions, corrections & violent reactions...
E-mail me at nathanhayag@gmail.com

*** I sort of mixed all the strings that I hear and came up with this 
    intro. You'll dig it once you get the hang of it. Listen to the 
    record and you'll get the intro in no time. And oh, i'm sorry if
    the instrumental sounded awful. I can't hear those bass notes, and 
    i think i kinda fucked up those treble ones. Heh. 

STANDARD TUNING ( E A D G B E )
[ Tab from: http://www.guitartabs.cc/tabs/s/switchfoot/only_hope_tab_ver_4.html ]
CHORDS :   Em - 022000     A - x02220    D    - xx0232
           C9 - x32030     G - 320033    C#m7 - x46454
           Bm - x24432     B - x24442    F#7  - 242322    
          
INTRO :
    Em        G      Bm      Em         C9       G    C9      B        Em
                                  |---- 1.
e||-(0)---------------------0----||-------------------------------0-0h2--0-
B||*-------------------3---3--0-*||-1/3-3-3-1-0---0------------4-----------
G||-------0--------4-------------||-------------0---2-0-----0--------------
D||--2------2-5------5---4---(2)-||---------------------2-4----4--2---1--2-
A||*----2--------5-----2--------*||-------3-------------3------------------
E||--0--------3---------------0--||---------------3---------------------(0)

         C9       G     C9    Bm       Em
 |---- 2.
e------------------------------2--0-----0-
B-1/3-3--3--1-0---0------------------4----
G---------------0---2-0-----0-------------
D-----------------------2-4----4--2--1--2-
A--------3--------------3-----------------
E-----------------3--------------------(0)


Em     G     Bm     Em  C9      G      C9       B     Em   
e----------------------------0---|------------------------------------------
B----------------------3---3---0-|3------3---3----3----3-----3----4------4--
G------0---------4---------------|0----0---0-0---0-----0----0-----4----4--4-
D--2------2--5------5----4----(2)|---2---------0----------2---------4-------
A-----2--------5-------2---------|3-----------------2--3--------3-2---------
E--0---------3-----------------0-|-----------3------------------------------


INSTRUMENTAL :
e----7-7---7-7----------7-7-----------------------------
B----8-8---8-8---7-7----8-8-----------8-8------------7--
G----------------8-8----------9-9-----------9-9----8-8--
D-------------------------------------------------------
A--7-----5------------7-------------5-------------------
E--------------7-------------8------------8------7------ 








ANIMO LA SALLE!



~¤^{bånånåts}^¤~
Comments