Switchfoot - Only Hope Chords & Tabs

 

Only Hope Chords & Tabs

Switchfoot Chords & Tabs

Version: 3 Type: Tab 0 ratings
1 star 2 stars 3 stars 4 stars 5 stars
comments

Only Hope Tab

   
#----------------------------------PLEASE NOTE---------------------------------#
#This file is the author's own work and represents their interpretation of the #
#song. You may only use this file for private study, scholarship, or research. #
#------------------------------------------------------------------------------#

Only Hope  (by switchfoot)

(Corded by calebwoolley)
(The intro is a little tricky but once u hear it it is 
easier (there is an optional intro just before the bridge). 
The cords are difficult for a beginner, and the C#m in the 
chorus is probably under D flat minor in a cord book but I 
couldn't write it on this page because there is no flat sign.  
I corded this all by ear, and I think it is pretty close so 
enjoy! And don’t give up on it!



(Intro)
[ Tab from: http://www.guitartabs.cc/tabs/s/switchfoot/only_hope_tab_ver_3.html ]
  Em      G      D      Em    C  G   C     B
E-------------------------------------------------
B------------------3----3331p0-0------------------
G------0------0---2--------------2p0-----0--------
D----2------0----0-------------------2-4---4-2-1--
A---2------2---------2----------------------------
E--0------3---------------------------------------


(Chorus) 


(optional easier intro.)

(Instrumental)
   Em     G      D   Em    C  G   C     B
E---------------------------------------------
B------------------3----------------------4---
G-----------------2----0----0-------0----4----
D----2------0----0----2----2----0--2----4-----
A---2------2---------2----3----2--3-----------
E--0------3-------------------3---------------

(Bridge)

(Chorus) 

(Outro)


  Em      G      D      Em    C  G   C     B
E-------------------------------------------------
B------------------3----3331p0-0------------------
G------0------0---2--------------2p0-----0--------
D----2------0----0-------------------2-4---4-2-1--
A---2------2---------2----------------------------
E--0------3---------------------------------------
Comments