Switchfoot - Only Hope Chords & Tabs

 

Only Hope Chords & Tabs

Switchfoot Chords & Tabs

Version: 2 Type: Tab 0 ratings
1 star 2 stars 3 stars 4 stars 5 stars
comments

Only Hope Tab

   
Standard Tuning

  Intro: (2x)
  ----------------------------------------------
  ----------------------------------------------
  ---------7-9-4-5/9-9-9-5-4-4-2-0--------------
  ---- 7/9-------------------------2-4-5-4-2-1--
  -2/7------------------------------------------
  ----------------------------------------------

  Verse: 
    Em7    Cm/G     Bm7     Em	  C9       G      C9      Bm       
  -------|-------|-------|-------|-------|-------|-------|--------
  -------|-------|-------|-------|-----3-|-----3-|-----3-|--------
  -----7-|-----4-|-----2-|-----0-|-------|-------|-------|-----4--
  ---9---|---5---|---4---|-------|---2---|-------|---2---|---4----
  -7-----|-------|-2-----|---2---|-3-----|---2---|-3-----|-2------
  -------|-3-----|-------|-0-----|-------|-3-----|-------|--------
[ Tab from: http://www.guitartabs.cc/tabs/s/switchfoot/only_hope_tab_ver_2.html ]
   Chorus A:        Chorus B:
   E B A            E B A
   E B A            E B A
   Cm A             Cm A
   Cm G             Cm A
   B                Cm G 
                    B

   Pre-Bridge:
   --------------------------------------------------
   --------------------------------------------------
   ---4-4---4-4---------4-4---------4-4--------------
   -2-----0-------4-4-2-------5-5-0-------5-5---4-4--
   -------------2-----------3-----------3-----2------
   --------------------------------------------------

   Bridge:
   D B
   D B
   D B
   G A 
   D B
   G A


      *The lick goes like this:
        Intro
        Verse 1(the tab above is for every line, ok?)
        Chorus A
        Verse 2(the tab above is for every line too)
        Chorus A 
        Pre-Bridge
	Bridge
	Chorus B
        Intro


------> So that's it.  That song got a lot of airplay here in the 
phillipines,and i think that it's really cool, for a contemporaray
 song.  Personally, I like this version better than the one done by 
Ms. Moore,no offense thought.  This is my first time in creating a 
tab so i know that its full of mistakes. My apologies for that.  
If there are corrections,feel free to email me at faz@softhome.net,
ok?  

Ciao!

Comments