Switchfoot - On Fire Chords & Tabs

 

On Fire Chords & Tabs

Switchfoot Chords & Tabs

Version: 1 Type: Tab 0 ratings
1 star 2 stars 3 stars 4 stars 5 stars
comments

On Fire Tab

   
-------------------------------------------------------------------------------
		SONG NAME: On Fire - Band Name: Switchfoot
-------------------------------------------------------------------------------
Tabbed by: johnc27
Email: j0hnc86@yahoo.com


Well, here is the TAB for another great switchfoot song, on fire.
The chords used are Caad2, G, Am, F, in that order. You can look at another version to see 
where to put them in.

This is the piano part transcribed for guitar:
[ Tab from: http://www.guitartabs.cc/tabs/s/switchfoot/on_fire_tab.html ]
e|-8-7----------8-7-------8-7--------3-5--------------|
B|----------------------------------------------------|
G|----------------------------------------------------|
D|--------10-12-------5-7-------9-10---------3-5------|
A|-----10-----------5---------7------------3----------|
E|---8------------3---------5------------1------------|


  This is the guitar part after the second chorus. Since you can't distinguish it well 
the CD, this is the live version (which sounds very
close to the one on the CD.) Mild distortion will do.

e|---------------0-3/5-3-1-0-------------------------------------------------|
B|-----------0-1-------------------------------------------------------------|
G|---------2-----------------------------------------------------------------|
D|-------2-------------------------------------------------------------------|
A|-0-2-3---------------------------------------------------------------------|
E|---------------------------------------------------------------------------|

        Thats about it! Leave a comment, rate it, and have fun

| /  slide up
| \  slide down
| h  hammer-on
| p  pull-off
| ~  vibrato
Comments