Switchfoot - More Than Fine Chords & Tabs

 

More Than Fine Chords & Tabs

Switchfoot Chords & Tabs

Version: 1 Type: Bass Tab 0 ratings
1 star 2 stars 3 stars 4 stars 5 stars
comments

More Than Fine Bass Tab

Switchfoot~More Than Fine
From the album The Beautiful Letdown (very awesome cd)
Tabbed by Switchchick0610
SWITCHFOOT ROCKS!!!

***The E string is dropped to D***
I tried so so so hard to get every single note. I'm so sorry if i missed a couple notes.
There is some slides between the some of the notes but you can listen for that. 

The bass doesn't play in the intro but you can play this if you want while your waiting
for the bass to come in lol. 

Intro	     x4		      x1
G|------------------|----------------------------|
D|------------------|----------------------------|
A|--0-0---0-22-232--|-----5---7---10-----5~------| x2
D|------------------|----------------------------|

First part ^ x2 then....

Verse 1
G|------------------------------------------------------|
D|------------------------------------------------------|
A|---7-5-----3-2----7-77--5-----5---9-10-----232--------|
D|----------------------------0-------------------------|
(Bass comes in)

G|------------------------------------------|
D|------------------------------------------|
A|---7-5----3-2---7--7--5---7>----7>--------|
D|------------------------------------------|


Chorus 1
G|--------------------------------------------------------------------------|
D|--------------------------------------------------------17---16 17 16 12--|
A|--10 10 10--10---12 12 12 12--12---14 14 14 14--17--19--------------------|
D|--------------------------------------------------------------------------|

G|---------------------------------------------------|
D|---------------------------------------------------|
A|--10 10 10---10----12 12 12 12 14----5~------------|
D|---------------------------------------------------|

[ Tab from: http://www.guitartabs.cc/tabs/s/switchfoot/more_than_fine_btab.html ]
Verse 2
G|-------------------------------------------------------------------|
D|-------------------------------------------------------------------|
A|----5----9-10------14 15 14 12------5----9-10------14 15 14 12-----|
D|--0-------------------------------0--------------------------------|
								               
G|------------------------------------|
D|---------------------------7--7h5---|	^^^^^^^^^^^^^^
A|--5-5--7---10----5----5h7-----------| then do first part again then...
D|------------------------------------|

*Verse 1*

Fill before chorus
G|--------------7-9-----|
D|--------7-9-----------|
A|---7-9----------------|
D|----------------------|

*Chorus 1*

Verse 3
G|-------------------------------------------|
D|-------------------------------------------|
A|-----5----9-10-----14 15 14 12-------------|
D|---0---------------------------------------|

Chorus 2
G|----------------------------------------------------------------------|
D|---------------------------------7----454--0--------------------------|
A|-----------0000--0---2222---5-7--------------------------0000--2------|
D|--555--5----------------------------------------555--5----------------|

*Verse 3*   x2

Bridge	                  x4			                    x2
G|-------|-----------------------|-----------------|-------|-----------------------|
D|-------|-----------------------|-----------------|-------|-----------------------|
A|--355--|--355--355--355--3335--|--355--35------3-|--355--|--355--355--355--3335--|
D|-------|-----------------------|----------3-5----|-------|-----------------------|

G|------------------------------|
D|------------------------------|
A|--355---355---355----17/------|
D|------------------------------|

*Rest*     then..........

G|---------------------------------|
D|----------19----16 17 16 12------|
A|---17-19-------------------------|
D|---------------------------------|

*Verse 3*
*Chorus 2*
*Verse 3*   x3

Finally end on
G|--------|
D|--------|
A|---17---|
D|--------|

Thats it!! I hope you enjoy it.
Comments