Switchfoot - Meant To Live Chords & Tabs

 

Meant To Live Chords & Tabs

Switchfoot Chords & Tabs

Version: 4 Type: Tab 4 ratings
1 star 2 stars 3 stars 4 stars 5 stars
comments

Meant To Live Tab

   
Title: Meant to Live
Artist: Switchfoot
Tuning: Drop D (E B G D A D)

Intro:
(Guitar 1)
e|---------------------------------------------------
b|---------------------------------------------------
g|---------------------------------------------------
d|-------------------4b5b4-------------5-5-5-5-7-7-7-
a|-2-2-2-------------------------------5-5-5-5-7-7-7-
d|-------------------------2-2-2-------5-5-5-5-7-7-7-

(Guitar 2)
e|---------------------------------------------------
b|---------------------------------------------------
g|---------------------------------------------------
d|-------4b5b4-------------------4b5b4---------------
a|-------------0-0-0---------------------------------
d|---------------------------------------------------


(Guitar 1)
e|-----------------------------------------------------
b|-----------------------------------------------------
g|-----------------------------------------------------
d|-------4b5b4-------4b5b4-------4b5b4-----------------
a|-----------------------------------------------------
d|-----------------------------------------------------

(Guitar 2)
e|-----------------------------------------------------
b|-----------------------------------------------------
g|-4-4-4-------2-2-2-----------------------------------
d|-4-4-4-------2-2-2-------2-2-2-------0-2-0-0-2-0-2-0-
a|-2-2-2-------0-0-0-------2-2-2-------0-2-0-0-2-0-2-0-
d|-------------------------2-2-2-------0-2-0-0-2-0-2-0-

(Guitar 1)
e|-----------------------------------------------------
b|-----------------------------------------------------
g|-----------------------------------------------------
d|-4-4b5b5-\2-0-/2-0-----------------------------------
a|-------------------4\0-------------------------------
d|-----------------------7b~~--------------------------

(Guitar 2)
e|-----------------------------------------------------
b|-----------------------------------------------------
g|-------------------------------------4-4-4-4-4-4-4---
d|-------4b5b4-------4b5b4-------4b5b4-4-4-4-4-4-4-4-5-
a|-2-2-2-------0-0-0-------------------2-2-2-2-2-2-2-5-
d|-------------------------2-2-2---------------------5-

Verse:
(Guitar 1)
e|---------------------------------
b|---------------------------------
g|---------------------------------
d|-2-0-0-0-2-0-0-2-0-0-0-0---------
a|-2-0-0-0-2-0-0-2-0-0-0-0---------
d|-2-0-0-0-2-0-0-2-0-0-0-0-4b5b4---

e|-----------------------------------
b|-----------------------------------
g|-----------------------------------
d|-2-0-0-0-2-0-0-2-0-0-0-0---------5-
a|-2-0-0-0-2-0-0-2-0-0-0-0---------5-
D|-2-0-0-0-2-0-0-2-0-0-0-0-4b5b4/7-5-

(Guitar 2)
e|---------------------------------
b|---------------------------------
g|---------------------------------
D|-2-0-0-0-2-0-0-2-0-0-0-0-2-0-0-0-
A|-2-0-0-0-2-0-0-2-0-0-0-0-2-0-0-0-
D|-2-0-0-0-2-0-0-2-0-0-0-0-2-0-0-0-

e|---------------------------------
b|---------------------------------
g|---------------------------------
D|-2-0-0-0-2-0-0-2-0-0-0-0-2-0-0-0-
A|-2-0-0-0-2-0-0-2-0-0-0-0-2-0-0-0-
D|-2-0-0-0-2-0-0-2-0-0-0-0-2-0-0-0-
[ Tab from: http://www.guitartabs.cc/tabs/s/switchfoot/meant_to_live_tab_ver_4.html ]
Chorus:
(Guitar 1)
e|-----------------------------------------------------------------
b|-----------------------------------------------------------------
g|-----------------------------------------------------------------
d|-5-5-5---x-x-x-x-7-7-7---x-x-x-x-9-9-9---x-x-x-x-9-9-9---4b5-----
a|-5-5-5---x-x-x-x-7-7-7---x-x-x-x-9-9-9---x-x-x-x-9-9-9-----------
d|-5-5-5---x-x-x-x-7-7-7---x-x-x-x-9-9-9---x-x-x-x-9-9-9-----------

e|-----------------------------------------------------------------
b|-----------------------------------------------------------------
g|-----------------------------------------------------------------
d|-5-5-5---x-x-x-x-7-7-7---4b5-----9-9-9---x-x-x-x-9-9-9---4b5-----
a|-5-5-5---x-x-x-x-7-7-7-----------9-9-9---x-x-x-x-9-9-9-----------
d|-5-5-5---x-x-x-x-7-7-7-----------9-9-9---x-x-x-x-9-9-9-----------

(Guitar 2)
e|-----------------------------------------------------------------
b|-----------------------------------------------------------------
g|-----------------------------------------------------------------
d|-5-5-5---x-x-x-x-7-7-7---x-x-x-x-9-9-9---x-x-x-x-9-9-9---x-x-x-x-
a|-5-5-5---x-x-x-x-7-7-7---x-x-x-x-9-9-9---x-x-x-x-9-9-9---x-x-x-x-
d|-5-5-5---x-x-x-x-7-7-7---x-x-x-x-9-9-9---x-x-x-x-9-9-9---x-x-x-x-

e|-----------------------------------------------------------------
b|-----------------------------------------------------------------
g|-----------------------------------------------------------------
d|-5-5-5---x-x-x-x-7-7-7---x-x-x-x-9-9-9---x-x-x-x-9-9-9---x-x-x-x-
a|-5-5-5---x-x-x-x-7-7-7---x-x-x-x-9-9-9---x-x-x-x-9-9-9---x-x-x-x-
d|-5-5-5---x-x-x-x-7-7-7---x-x-x-x-9-9-9---x-x-x-x-9-9-9---x-x-x-x-

Bridge Solo:
(Guitar 1)
e|-------------------------
b|-------------------------
g|-11b12b11\9p7-6b7b6------
d|--------------------7b9~-
a|-------------------------
d|-------------------------

(Guitar 2)
e|-----------------------------------------------------
b|-----------------------------------------------------
g|---------------------------------------------------4-
d|-------4b5b4-------4b5b4-------4b5b4-2-0-0-0-2-0-0-4-
a|-2-2-2-------0-0-0-------------------2-0-0-0-2-0-0-2-
d|-------------------------2-2-2-------2-0-0-0-2-0-0---

Bridge:
(Guitar 2)
e|--2--|--3--|
b|--3--|--3--|
g|--2--|--0--|
d|--0--|--2--|
a|-----|--3--|
d|-----|-----|

Outro:
(Guitar 1)
e|----------------
b|----------------
g|-/8---8-8-8-8-8-
d|-/6---6-6-6-6-6-
a|----------------
d|----------------

e|----------------------
b|----------------------
g|-/11---11-11-11-11-11-
d|-/9-----9--9--9--9--9-
a|----------------------
d|----------------------

e|----------------
b|----------------
g|-/8---8-8-8-8-8-
d|-/6---6-6-6-6-6-
a|----------------
d|----------------

e|----------------------
b|----------------------
g|-/11---11-11-11-11-11-
d|-/9-----9--9--9--9--9-
a|----------------------
d|----------------------

e|----------------
b|----------------
g|-/8---8-8-8-8-8-
d|-/6---6-6-6-6-6-
a|----------------
d|----------------

e|-----------------------
b|-----------------------
g|-/16---16-16-16-16-16\-
d|-/14---14-14-14-14-14\-
a|-----------------------
d|-----------------------

(Guitar 2)
e|------|-----|-----|
b|------|-----|-----|
g|------|-----|-----|
d|--10--|--5--|--0--|
a|--10--|--5--|--0--|
d|--10--|--5--|--0--|
The third chord is played till the end.

Ending:
(Guitar 1)
e|---------------------------
b|---------------------------
g|---------------------------
d|-------4b5b4-------4b5b4---
a|---------------------------
d|---------------------------

(Guitar 2)
e|---------------------------
b|---------------------------
g|-4-4-4-------2-2-2---------
d|-4-4-4-------2-2-2-------2-
a|-2-2-2-------0-0-0-------2-
d|-------------------------2-
Comments