Switchfoot - Meant To Live Chords & Tabs

 

Meant To Live Chords & Tabs

Switchfoot Chords & Tabs

Version: 2 Type: Tab 24 ratings
1 star 2 stars 3 stars 4 stars 5 stars
comments

Meant To Live Tab

   
Switchfoot 

meant to live

tuning: drop D

tabbed by: ak47 and eViL DuGy

b=bend
bbb=long slow bend
h=hammer
~=ring
/=slide
[]=harmonic


E|---------------------------------------------|
B|---------------------------------------------|
G|-4-4-4-------2-2-2---------------------------|
D|-4-4-4-4b5---2-2-2-4b5---2-2-2-4b5---5-5h7-7-|
A|-2-2-2-------0-0-0-------2-2-2-------5-5h7-7-|
D|-------------------------2-2-2-------5-5h7-7-|

E|----------------------------------------------------|
B|----------------------------------------------------|
G|-4-4-4-------2-2-2----------------------------------|
D|-4-4-4-4b5---2-2-2-4b5---2-2-2-4b5---0-2-0-0-0-2/5--|
A|-2-2-2-------0-0-0-------2-2-2-------0-2-0-0-0-2/5--|
D|-------------------------2-2-2-------0-2-0-0-0-2/5--|


[Guitars 1 and 2 played together]
guitar 1
E|----------------------------|
B|----------------------------|
G|----------------------------|
D|--4b5--2--0--4--0-----------|
A|-------------------4--------|
D|----------------------7bbb9-|

guitar 2
E|-----------------------------------------------------|
B|-----------------------------------------------------|
G|-4-4-4-------2-2-2-----------------------------------|
D|-4-4-4-4b5---2-2-2-4b5---2-2-2-4b5---0-2-0-0-0-2/5~--|
A|-2-2-2-------0-0-0-------2-2-2-------0-2-0-0-0-2/5~--|
D|-------------------------2-2-2-------0-2-0-0-0-2/5~--|
              
E|---------------------------------------------------------------|
B|---------------------------------------------------------------|
G|---------------------------------------------------------------|
D|-----2-0~----4-0~----2-0~---------2-0~----4-0~----2-0~---------|
A|-----2-0~----4-0~----2-0~---------2-0~----4-0~----2-0~---------|
D|-----2-0~----4-0~----2-0~--4b5b4--2-0~----4-0~----2-0~--4b5/7--|

E|---------------------------------------------------------------|
B|---------------------------------------------------------------|
G|---------------------------------------------------------------|
D|-5~--2-0~----4-0~----2-0~---------2-0~----4-0~----2-0~---------|
A|-5~--2-0~----4-0~----2-0~---------2-0~----4-0~----2-0~---------|
D|-5~--2-0~----4-0~----2-0~--4b5b4--2-0~----4-0~----2-0~--4b5/7--|

E|------------------------------------------------------------|
B|------------------------------------------------------------|
G|------------------------------------------------------------|
D|-5-5-5-------------7-7-7-------------9-9-9-[9]-[9]-[9]------|
A|-5-5-5-------------7-7-7-[7]-[7]-[7]-9-9-9------------------|
D|-5-5-5-[5]-[5]-[5]-7-7-7-------------9-9-9------------------|

E|-------------------------------------------------------------|
B|-------------------------------------------------------------|
G|-------------------------------------------------------------|
D|-2-2-2-4b5--5-5-5-------------2-2-2-4b5--5-5-5-------------2-|
A|-2-2-2------5-5-5-------------2-2-2------5-5-5-------------2-|
D|-2-2-2------5-5-5-[5]-[5]-[5]-2-2-2------5-5-5-[5]-[5]-[5]-2-|

E|------------------------------------------------------------|
B|------------------------------------------------------------|
G|------------------------------------------------------------|
D|-5-5-5-------------7-7-7-------------9-9-9-[9]-[9]-[9]------|
A|-5-5-5-------------7-7-7-[7]-[7]-[7]-9-9-9------------------|
D|-5-5-5-[5]-[5]-[5]-7-7-7-------------9-9-9------------------|

E|------------------------------|
B|------------------------------|
G|------------------------------|
D|-2-2-2-4b5--5-5-5-------------|
A|-2-2-2------5-5-5-------------|
D|-2-2-2------5-5-5-[5]-[5]-[5]-|
[ Tab from: http://www.guitartabs.cc/tabs/s/switchfoot/meant_to_live_tab_ver_2.html ]
E|---------------------------------------------------------------|
B|---------------------------------------------------------------|
G|---------------------------------------------------------------|
D|-----2-0~----4-0~----2-0~---------2-0~----4-0~----2-0~---------|
A|-----2-0~----4-0~----2-0~---------2-0~----4-0~----2-0~---------|
D|-----2-0~----4-0~----2-0~--4b5b4--2-0~----4-0~----2-0~--4b5/7--|
E|---------------------------------------------------------------|
B|---------------------------------------------------------------|
G|---------------------------------------------------------------|
D|-5~--2-0~----4-0~----2-0~---------2-0~----4-0~----2-0~---------|
A|-5~--2-0~----4-0~----2-0~---------2-0~----4-0~----2-0~---------|
D|-5~--2-0~----4-0~----2-0~--4b5b4--2-0~----4-0~----2-0~--4b5/7--|

E|---------------------------------------------------------------|
B|---------------------------------------------------------------|
G|---------------------------------------------------------------|
D|-5~--2-0~----4-0~----2-0~---------2-0~----4-0~----2-0~---------|
A|-5~--2-0~----4-0~----2-0~---------2-0~----4-0~----2-0~---------|
D|-5~--2-0~----4-0~----2-0~--4b5b4--2-0~----4-0~----2-0~--4b5/7--|

E|------------------------------------------------------------|
B|------------------------------------------------------------|
G|------------------------------------------------------------|
D|-5-5-5-------------7-7-7-------------9-9-9-[9]-[9]-[9]------|
A|-5-5-5-------------7-7-7-[7]-[7]-[7]-9-9-9------------------|
D|-5-5-5-[5]-[5]-[5]-7-7-7-------------9-9-9------------------|

E|-------------------------------------------------------------|
B|-------------------------------------------------------------|
G|-------------------------------------------------------------|
D|-2-2-2-4b5--5-5-5-------------2-2-2-4b5--5-5-5-------------2-|
A|-2-2-2------5-5-5-------------2-2-2------5-5-5-------------2-|
D|-2-2-2------5-5-5-[5]-[5]-[5]-2-2-2------5-5-5-[5]-[5]-[5]-2-|

E|-------------------------------------------------------|
B|-------------------------------------------------------|
G|-------------------------------------------------------|
D|-5-5-5-------------7-7-7-------------9-9-9-[9]-[9]-[9]-|
A|-5-5-5-------------7-7-7-[7]-[7]-[7]-9-9-9-------------|
D|-5-5-5-[5]-[5]-[5]-7-7-7-------------9-9-9-------------|

E|------------------------------|
B|------------------------------|
G|------------------------------|
D|-2-2-2-4b5--5-5-5-------------|
A|-2-2-2------5-5-5-------------|
D|-2-2-2------5-5-5-[5]-[5]-[5]-|

E|----------------------------------------------------|
B|----------------------------------------------------|
G|-4-4-4-------2-2-2----------------------------------|
D|-4-4-4-4b5---2-2-2-4b5---2-2-2-4b5---0-2-0-0-0-2/5--|
A|-2-2-2-------0-0-0-------2-2-2-------0-2-0-0-0-2/5--|
D|-------------------------2-2-2-------0-2-0-0-0-2/5--|

[Guitars 1 and 2 played together]
guitar 1
E|----------------------------|
B|----------------------------|
G|----------------------------|
D|--4b5--2--0--4--0-----------|
A|-------------------4--------|
D|----------------------7bbb9-|

guitar 2
E|-----------------------------------------------------|
B|-----------------------------------------------------|
G|-4-4-4-------2-2-2-----------------------------------|
D|-4-4-4-4b5---2-2-2-4b5---2-2-2-4b5---0-2-0-0-0-2/5~--|
A|-2-2-2-------0-0-0-------2-2-2-------0-2-0-0-0-2/5~--|
D|-------------------------2-2-2-------0-2-0-0-0-2/5~--|

                         end of acoustic
                          *distortion*
Acoustic repeat 5 times	      part
E|-----------------------------------|
B|--3--3--3---8--8--8----------------|
G|--2--2--2---7--7--7-----5-5-5~-----|
D|--0--0--0---5--5--5-----5-5-5~--5~-|
A|--0--0--0---5--5--5-----3-3-3~--5~-|
D|--0--0--0---5--5--5-------------5~-|

feedback part guitar1
E|---------------------------------|
B|---------------------------------|
G|--7-7-7~~~-------11-11-11~~~~----|
D|---------------------------------|
A|---------------------------------|
D|---------------------------------|

during feedback part guitar 2
(heavy distortion) ???
E|--------------------------------|
B|--------------------------------|
G|--------------------------------|
D|--0~---0/5~---0~----------------|
A|--0~---0/5~---0~----------------|
D|--0~---0/5~---0~----------------|

end
E|----------------------------|
B|----------------------------|
G|-4-4-4-------2-2-2----------|
D|-4-4-4-4b5---2-2-2-4b5---2~-|
A|-2-2-2-------0-0-0-------2~-|
D|-------------------------2~-|




Comments