Switchfoot - Meant To Live Chords & Tabs

 

Meant To Live Chords & Tabs

Switchfoot Chords & Tabs

Version: 12 Type: Tab 0 ratings
1 star 2 stars 3 stars 4 stars 5 stars
comments

Meant To Live Tab

   
-----------------------------------------------------------------------------
			     Meant To Live -Switchfoot                      
-----------------------------------------------------------------------------
Tabbed by:eva unit one
Email:

Tuning:DADGBE

E|--------------------------------------------------------------------------|
B|--------------------------------------------------------------------------|
G|--------------------------------------------------------------------------|
D|--------4b--------4b---2-2-2--4b--5-5-5-5---7-7---------------------------|
A|-2-2-2-----0-0-0-------2-2-2------5-5-5-5---7-7---------------------------|
D|-----------------------2-2-2------5-5-5-5---7-7---------------------------|

E|--------------------------------------------------------------------------|
B|--------------------------------------------------------------------------|
G|-4-4-4-----2-2-2--------------------------2-------------------------------|
D|-4-4-4-4b--2-2-2-4b-2-2-2-4b--0-2-0-0-0-2-2-------------------------------|
A|-2-2-2-----0-0-0-----2-2-2----0-2-0-0-0-2-2-------------------------------|
D|---------------------2-2-2----0-2-0-0-0-2-0-------------------------------|

E|--------------------------------------------------------------------------|
B|--------------------------------------------------------------------------|
G|-4-4-4-----2-2-2-4b-2-2-2-------------------------------------------------|
D|-4-4-4-4b--2-2-2----2-2-2--4-4-4-4-5-5------------------------------------|
A|-2-2-2-----0-0-0----2-2-2--4-4-4-4-5-5------------------------------------|
D|---------------------------4-4-4-4-5-5------------------------------------|
    
E|--------------------------------------------------------------------------|
B|--------------------------------------------------------------------------|
G|--------------------------------------------------------------------------|
D|--4b-----4----------------------------------------------------------------|
A|-----7-5---5-4------------------------------------------------------------|
D|----------------7b--------------------------------------------------------|

E|--------------------------------------------------------------------------|
B|--------------------------------------------------------------------------|
G|--------------------------------------------------------------------------|
D|--5-0-2-0-5-0-----5-0-2-0-5-0---7-5---------------------------------------|
A|--5-0-2-0-5-0-----5-0-2-0-5-0---7-5---------------------------------------|
D|--5-0-2-0-5-0-4b--5-0-2-0-5-0-4/7-5---------------------------------------|

E|--------------------------------------------------------------------------|
B|--------------------------------------------------------------------------|
G|--------------------------------------------------------------------------|
D|--5-0-2-0-5-0-----5-0-2-0-5-0---7-5---------------------------------------|
A|--5-0-2-0-5-0-----5-0-2-0-5-0---7-5---------------------------------------|
D|--5-0-2-0-5-0-4b--5-0-2-0-5-0-4/7-5---------------------------------------|

E|------x-x-x-x-------x-x-x-x-------x-x-x-x---------------------------------|
B|------x-x-x-x-------x-x-x-x-------x-x-x-x---------------------------------|
G|------x-x-x-x-------x-x-x-x-------x-x-x-x---------------------------------|
D|--5-5-x-x-x-x-7-7-7-x-x-x-x-9-9-9-x-x-x-x-2-2-2-2-4b----------------------|
A|--5-5-x-x-x-x-7-7-7-x-x-x-x-9-9-9-x-x-x-x-2-2-2-2-------------------------|
D|--5-5-x-x-x-x-7-7-7-x-x-x-x-9-9-9-x-x-x-x-2-2-2-2-------------------------|

E|------x-x-x-x--------------x-x-x-x----------------------------------------|
B|------x-x-x-x--------------x-x-x-x----------------------------------------|
G|------x-x-x-x--------------x-x-x-x----------------------------------------|
D|--5-5-x-x-x-x-2-2-2-4b-5-5-x-x-x-x-2-2-2--2-0-----------------------------|
A|--5-5-x-x-x-x-2-2-2----5-5-x-x-x-x-2-2-2--2-0-----------------------------|
D|--5-5-x-x-x-x-2-2-2----5-5-x-x-x-x-2-2-2--2-0-----------------------------|

E|------x-x-x-x-------x-x-x-x-------x-x-x-x---------------------------------|
B|------x-x-x-x-------x-x-x-x-------x-x-x-x---------------------------------|
G|------x-x-x-x-------x-x-x-x-------x-x-x-x---------------------------------|
D|--5-5-x-x-x-x-7-7-7-x-x-x-x-9-9-9-x-x-x-x-2-2-2-2-4b----------------------|
A|--5-5-x-x-x-x-7-7-7-x-x-x-x-9-9-9-x-x-x-x-2-2-2-2-------------------------|
D|--5-5-x-x-x-x-7-7-7-x-x-x-x-9-9-9-x-x-x-x-2-2-2-2-------------------------|

E|------x-x-x-x-------------------------------------------------------------|
B|------x-x-x-x-------------------------------------------------------------|
G|------x-x-x-x-------------------------------------------------------------|
D|--5-5-x-x-x-x-2-2-2-------------------------------------------------------|
A|--5-5-x-x-x-x-2-2-2-------------------------------------------------------|
D|--5-5-x-x-x-x-2-2-2-------------------------------------------------------|

E|--------------------------------------------------------------------------|
B|--------------------------------------------------------------------------|
G|--------------------------------------------------------------------------|
D|--5-0-2-0-5-0------5-0-2-0-5-0---7-5--------------------------------------|
A|--5-0-2-0-5-0------5-0-2-0-5-0---7-5--------------------------------------|
D|--5-0-2-0-5-0--4b--5-0-2-0-5-0-4/7-5--------------------------------------|

E|--------------------------------------------------------------------------|
B|--------------------------------------------------------------------------|
G|--------------------------------------------------------------------------|
D|--5-0-2-0-5-0------5-0-2-0-5-0---7-5--------------------------------------|
A|--5-0-2-0-5-0------5-0-2-0-5-0---7-5--------------------------------------|
D|--5-0-2-0-5-0--4b--5-0-2-0-5-0-4/7-5--------------------------------------|
[ Tab from: http://www.guitartabs.cc/tabs/s/switchfoot/meant_to_live_tab_ver_12.html ]
E|--------------------------------------------------------------------------|
B|--------------------------------------------------------------------------|
G|--------------------------------------------------------------------------|
D|--5-0-2-0-5-0------5-0-2-0-5-0---7-5--------------------------------------|
A|--5-0-2-0-5-0------5-0-2-0-5-0---7-5--------------------------------------|
D|--5-0-2-0-5-0--4b--5-0-2-0-5-0-4/7-5--------------------------------------|


E|------x-x-x-x-------x-x-x-x-------x-x-x-x---------------------------------|
B|------x-x-x-x-------x-x-x-x-------x-x-x-x---------------------------------|
G|------x-x-x-x-------x-x-x-x-------x-x-x-x---------------------------------|
D|--5-5-x-x-x-x-7-7-7-x-x-x-x-9-9-9-x-x-x-x-2-2-2-2-4b----------------------|
A|--5-5-x-x-x-x-7-7-7-x-x-x-x-9-9-9-x-x-x-x-2-2-2-2-------------------------|
D|--5-5-x-x-x-x-7-7-7-x-x-x-x-9-9-9-x-x-x-x-2-2-2-2-------------------------|


E|------x-x-x-x--------------x-x-x-x----------------------------------------|
B|------x-x-x-x--------------x-x-x-x----------------------------------------|
G|------x-x-x-x--------------x-x-x-x----------------------------------------|
D|--5-5-x-x-x-x-2-2-2-4b-5-5-x-x-x-x-2-2-2--2-0-----------------------------|
A|--5-5-x-x-x-x-2-2-2----5-5-x-x-x-x-2-2-2--2-0-----------------------------|
D|--5-5-x-x-x-x-2-2-2----5-5-x-x-x-x-2-2-2--2-0-----------------------------|

E|------x-x-x-x-------x-x-x-x-------x-x-x-x---------------------------------|
B|------x-x-x-x-------x-x-x-x-------x-x-x-x---------------------------------|
G|------x-x-x-x-------x-x-x-x-------x-x-x-x---------------------------------|
D|--5-5-x-x-x-x-7-7-7-x-x-x-x-9-9-9-x-x-x-x-2-2-2-2-4b----------------------|
A|--5-5-x-x-x-x-7-7-7-x-x-x-x-9-9-9-x-x-x-x-2-2-2-2-------------------------|
D|--5-5-x-x-x-x-7-7-7-x-x-x-x-9-9-9-x-x-x-x-2-2-2-2-------------------------|

E|------x-x-x-x-------------------------------------------------------------|
B|------x-x-x-x-------------------------------------------------------------|
G|------x-x-x-x-------------------------------------------------------------|
D|--5-5-x-x-x-x-2-2-2-------------------------------------------------------|
A|--5-5-x-x-x-x-2-2-2-------------------------------------------------------|
D|--5-5-x-x-x-x-2-2-2-------------------------------------------------------|

E|--------------------------------------------------------------------------|
B|--------------------------------------------------------------------------|
G|-4-4-4----2-2-2--------------------------2--------------------------------|
D|-4-4-4-4b-2-2-2-4b-2-2-2-4b--0-2-0-0-0-2-2--------------------------------|
A|-2-2-2----0-0-0----2-2-2-----0-2-0-0-0-2-2--------------------------------|
D|-------------------2-2-2-----0-2-0-0-0-2-0--------------------------------|

E|--------------------------------------------------------------------------|
B|--------------------------------------------------------------------------|
G|-4-4-4----2-2-2-4b-2-2-2--------------------------------------------------|
D|-4-4-4-4b-2-2-2----2-2-2--4-4-4-4-5-5-------------------------------------|
A|-2-2-2----0-0-0----2-2-2--4-4-4-4-5-5-------------------------------------|
D|--------------------------4-4-4-4-5-5-------------------------------------|

E|--------------------------------------------------------------------------|
B|--------------------------------------------------------------------------|
G|--------------------------------------------------------------------------|
D|--4b-----4----------------------------------------------------------------|
A|-----7-5---5-4------------------------------------------------------------|
D|----------------7b--------------------------------------------------------|

E|--------------------------------------------------------------------------|
B|--------------------------------------------------------------------------|
G|----7-7-7-7-7-7-7---------------------------------------------------------|
D|----7-7-7-7-7-7-7---5-5-5-5-5-5-5-----------------------------------------|
A|----5-5-5-5-5-5-5---5-5-5-5-5-5-5-----------------------------------------|
D|--------------------5-5-5-5-5-5-5-----------------------------------------|

E|--------------------------------------------------------------------------|
B|--------------------------------------------------------------------------|
G|-------------7-7-7-7-7-7--------11-11-11-11-11-11-------------------------|
D|-----5--0----x-x-x-x-x-x---5--0--x--x--x--x--x--x-------------------------|
A|-----5--0----5-5-5-5-5-5---5--0--9--9--9--9--9--9-------------------------|
D|-----5--0------------------5--0-------------------------------------------|


E|--------------------------------------------------------------------------|
B|--------------------------------------------------------------------------|
G|-------------7-7-7-7-7-7----------11-11-11-11-11-11-----------------------|
D|-----5--0----x-x-x-x-x-x---5--0---x--x--x--x--x--x------------------------|
A|-----5--0----5-5-5-5-5-5---5--0---9--9--9--9--9--9------------------------|
D|-----5--0------------------5--0-------------------------------------------|



E|--------------------------------------------------------------------------|
B|--------------------------------------------------------------------------|
G|-------------7-7-7-7-7-7---------11-11-11-11-11-11------------------------|
D|-----5--0----x-x-x-x-x-x---5-0----x--x--x--x--x--x------------------------|
A|-----5--0----5-5-5-5-5-5---5--0---9--9--9--9--9--9------------------------|
D|-----5--0------------------5--0-------------------------------------------|



E|--------------------------------------------------------------------------|
B|--------------------------------------------------------------------------|
G|-------------7-7-7-7-7-7--------11-11-11-11-11-11-------------------------|
D|-----5--0----x-x-x-x-x-x---5--0--x--x--x--x--x--x-------------------------|
A|-----5--0----5-5-5-5-5-5---5--0--9--9--9--9--9--9-------------------------|
D|-----5--0------------------5--0-------------------------------------------|

E|--------------------------------------------------------------------------|
B|--------------------------------------------------------------------------|
G|-4-4-4------2-2-2---------------------------------------------------------|
D|-4-4-4--4b--2-2-2--4b-2-2-2-----------------------------------------------|
A|-2-2-2------0-0-0-----2-2-2-----------------------------------------------|
D|----------------------2-2-2-----------------------------------------------|




| /  slide up
| \  slide down
| h  hammer-on
| p  pull-off
| ~  vibrato
| +  harmonic
| x  Mute note
=========================================================================
Comments