Switchfoot - Meant To Live Chords & Tabs

 

Meant To Live Chords & Tabs

Switchfoot Chords & Tabs

Version: 2 Type: Bass Tab 0 ratings
1 star 2 stars 3 stars 4 stars 5 stars
comments

Meant To Live Bass Tab

   
-----------------------------------------------------------------------------
			    Meant to Live - Switchfoot
-----------------------------------------------------------------------------

Tabbed By :bass_freak_22 
e-mail: 

Tuning:drop D(gdad)

Intro
G|-------------------------------------------------------------|
D|-------------------------------------------------------------|
A|-------------------------------------------------------------|
d|---999--777--222--555--777--999--777--222--555--777----------|

Verse 1:part 1
G|-------------------------------------------------------------|
D|-------------------------------------------------------------|
A|-------------------------------------------------------------|
d|--9--40--20--40--454--40--20--40--457------------------------|

Verse 1:part 2
G|-------------------------------------------------------------|
D|-------------------------------------------------------------|
A|-------------------------------------------------------------|
d|--5--40--20--40--454--40--20--40--457------------------------|
[ Tab from: http://www.guitartabs.cc/tabs/s/switchfoot/meant_to_live_btab_ver_2.html ]
Chorus
G|-------------------------------------------------------------|
D|-------------------------------------------------------------|
A|-------------------------------------------------------------|
d|--555xxx777xxx999xxx222-5b-222xxx222-5b-222xxx222-5b---------|2x
Verse 2:Part 1
G|-------------------------------------------------------------|
D|-------------------------------------------------------------|
A|-------------------------------------------------------------|
d|--40--20--40--454--40--20--40--457--5------------------------|2x

Verse 2:Part 2
G|--------------------------------------------------------------|
D|--------------------------------------------------------------|
A|--------------------------------------------------------------|
d|--40--20--40--454--40--20--40--457----------------------------|

Do the chorus 1 time

Interlude
G|--------------------------------------------------------------------|
D|--------------------------------------------------------------------|
A|--------------------------------------------------------------------|
d|-9------------7----------------5------2-----############--#########-|

End Chorus
G|--------------------------------------------------------------------|
D|--------------------------------------------------------------------|
A|--------------------------------------------------------------------|
d|-999--777--222--999--777--222--999--777--2--------------------------|

| x  Mute Note
|b Bend String
=============================================================================
Comments